Oops, an error
Loading. Please wait.

Its Too Late intro tab

version 1
version 1

Intro

Whole song

Interactive

2,085 views 3 this week
4 commentsread comments
1 2 3 4 5
x 4
add to favorites
×
Save as Personal and add changes to this tab that will be seen only by you. Learn more ›
×
You can save this tab as Personal to edit and correct it or add notes. All changes will be seen only by you. Learn more »
launch autoscroll
font size
0
reset
how to read this tab
guitar tuner
edit
Autoscroll
slow
fast
+/-
esc
set tempo
stop
Hey people, was mucking around with this riff and figured it sounded good.
Listen to the track to find out the timing and how many repeats you need to do.


[--11--12--11--7--5--7--9-----------------------------------------------]
[-----------------------------------------------------------------------]
[-----------------------------------------------------------------------]
[-----------------------------------------------------------------------]
[-----------------------------------------------------------------------]
[-----------------------------------------------------------------------]

[--12--11--7--11--7--5--7--9--------------------------------------------]
[-----------------------------------------------------------------------]
[-----------------------------------------------------------------------]
[-----------------------------------------------------------------------]
[-----------------------------------------------------------------------]
[-----------------------------------------------------------------------]

If you think it needs fine tuning feel free to touch it up or e-mail 
party hard kids

            
            
Suggest correction
Creating personal tab
Creating personal tab
You can edit any tab online and save it as your Personal.

You can edit, replace or remove any tab part or add personal notes – all changes will be seen only by you.

Personal tabs can be accessed anytime from any device, even offline.
Learn more »
comments
print report bad tab
4 comments total. Showing first comments.
0 reply
Luke24 10 Nov 15, 2006 10:26 PM

Hey Dude you messed up a bit. You play part of it on the second string other-wise it sounds a little off. Like this:

-11-12-11------9-11-----
----------11-9----------
------------------------
------------------------
------------------------
------------------------

0 reply
r0ckr0yalty 10 Jan 06, 2008 08:43 AM

I agree with Luke24, but the first riff, to me, sounds like
this...


-11-12-11-------9-11----
----------11-12---------
------------------------
------------------------
---
---------------------
------------------------

Then you go on
with:

-11-12-11------9-11-----
----------11-9----------
------------------------
------------------------
-------
-----------------
------------------------

Cheers
Lourdes V.

0 reply
r0ckr0yalty 10 Jan 06, 2008 08:43 AM

I agree with Luke24, but the first riff, to me, sounds like
this...


-11-12-11-------9-11----
----------11-12---------
------------------------
------------------------
---
---------------------
------------------------

Then you go on
with:

-11-12-11------9-11-----
----------11-9----------
------------------------
------------------------
-------
-----------------
------------------------

Cheers
Lourdes V.

guest
Wanna post a correction for this tab? Suggest correction