Oops, an error
Loading. Please wait.

Light Surrounding You tab

9,996 views 15 this week
no commentswrite comment
1 2 3 4 5
x 10
add to favorites
×
Save as Personal and add changes to this tab that will be seen only by you. Learn more ›
×
You can save this tab as Personal to edit and correct it or add notes. All changes will be seen only by you. Learn more »
launch autoscroll
font size
0
reset
how to read this tab
guitar tuner
edit
Autoscroll
slow
fast
+/-
esc
set tempo
stop
Author
Difficulty
Evermore - Light Surrounding You
-743

Hey guys! Havent tabbed nefin in a long time so im glad to try this
one out (not like its realli hard). Just today i was looking for a tab
for this song and i culd not find one at all. So heres my attempt.
Id just like to say this song is realli great! Guess this song is to
the many girls who fall pregnant and feel that fear of what may come
next. "So don't be afraid of something new"

-Correct me if im wrong on this tab!

Intro
E-----------------------------------------------------------------------|
B---------8--------8----------8--------8----------8--------8----------8-|
G-----8-8------8-8--------8-8------8-8--------8-8------8-8--------8-8---|
D-----------------------------------------------------------------------|
A-6-6------6-6--------5-5------5-5----------------------------5-5-------|
E-----------------------------------------8-8------8-8------------------|


E---------------------------|
B---------------------------|
G---------------------------|
D---------------------------|
A--5-5-5-6-6----------------|
E---------------------------|

Verse 1 - 0:11
(This part shuld be like the intro (picking) but im just gona make it
 strumming)

  D#     D/D#   Cm     A#     G#     Gm     Fm     A#
E--3------3------3------6------4------3------1------6--------------|
B--4------4------4------6------4------3------1------6--------------|
G--3------3------5------7------5------3------1------7--------------|
D--5------5------5------8------6------5------3------8--------------|
A--6------5------3------8------6------5------3------8--------------|
E--3------3------3------6------4------3------1------6--------------|

  D#     D/D#   Cm     A#
E--3------3------3------6-----------------------------------------|
B--4------4------4------6-----------------------------------------|
G--3------3------5------7-----------------------------------------|
D--5------5------5------8-----------------------------------------|
A--6------5------3------8-----------------------------------------|
E--3------3------3------6-----------------------------------------|

I see you by the water
Your toes dipped in the sand
I thought that it was over
I thought you'd understand
But the feeling is returning
Though time has made us change
And I understand if you don't
Wanna talk to me about it tonight
Tonight

Chorus - 0:46

  G#     D#     A#     Cm
E--4------3------6------3--------------------------------------------|
B--4------4------6------4--------------------------------------------|
G--5------3------7------5--------------------------------------------|
D--6------5------8------5--------------------------------------------|
A--6------6------8------3--------------------------------------------|
E--4------3------6------3--------------------------------------------|

'Cause I see the light surrounding you
So don't be afraid of something new

Verse 2 - 0:58


  D#     D/D#   Cm     A#     G#     Gm     Fm     A#
E--3------3------3------6------4------3------1------6--------------|
B--4------4------4------6------4------3------1------6--------------|
G--3------3------5------7------5------3------1------7--------------|
D--5------5------5------8------6------5------3------8--------------|
A--6------5------3------8------6------5------3------8--------------|
E--3------3------3------6------4------3------1------6--------------|

Time was overtaking me
And I guess I was confused
They were all inviting me
But I wish I had refused
'Cause I've been there before
And I've seen it all
And I believe in you

  D#     D/D#   Cm     A#
E--3------3------3------6-----------------------------------------|
B--4------4------4------6-----------------------------------------|
G--3------3------5------7-----------------------------------------|
D--5------5------5------8-----------------------------------------|
A--6------5------3------8-----------------------------------------|
E--3------3------3------6-----------------------------------------|

And if you never had my heart
I would've never called you back
At the start that night
So I want you to know

Chorus - 1:33

  G#     D#     A#     Cm
E--4------3------6------3-------|
B--4------4------6------4-------|
G--5------3------7------5-------|
D--6------5------8------5-------| x2
A--6------6------8------3-------|
E--4------3------6------3-------|

That I see the light surrounding you
So don't be afraid of something new
'Cause I see the light surrounding you
So don't be afraid of what you're turning into

Bridge - 1:57

E--------------------------------------------------------------------|
B----------4-----4-----4-----4-------------4-----4-----4-----4-------|
G----3-------3-----3-----3-----3-----3-------3-----3-----3-----3-----|
D------5-------5-----5-----5-----5-----5-------5-----5-----5-----5---|
A--6-----6-------------------------5-----5---------------------------|
E--------------------------------------------------------------------|

E--------------------------------------------------------------------|
B----------4-----4----4-----4-------------4-----4-----4h6-6b(3/4)----|
G----3-------3-----3----3-----3-----3-------3-----3h5----------------|
D------5-------5-----5----5-----5-----5-------5----------------------|
A--3-----3------------------------5-----5----------------------------|
E--------------------------------------------------------------------|

Blue-eyed sun shines on me
In the morning
Can't help but feel a little cold
Thinking of you

-2:08

  D#     D/D#   Cm     A#     G#     Gm     Fm     A#
E--3------3------3------6------4------3------1------6--------------|
B--4------4------4------6------4------3------1------6--------------|
G--3------3------5------7------5------3------1------7--------------|
D--5------5------5------8------6------5------3------8--------------|
A--6------5------3------8------6------5------3------8--------------|
E--3------3------3------6------4------3------1------6--------------|

Chorus - 2:44
(You guys know when u shuld play this)

  G#     D#     A#     Cm
E--4------3------6------3-------|
B--4------4------6------4-------|
G--5------3------7------5-------|
D--6------5------8------5-------| x(until the end)
A--6------6------8------3-------|
E--4------3------6------3-------|

'Cause I see the light surrounding you
So don't be afraid of something new
'Cause I see the light surrounding you
So don't be afraid of what you're turning into
No, don't be afraid
Don't be afraid
Cos I see the light
Cos I see the light
Cos I see the light surrounding you


-743

            
            
Suggest correction
Creating personal tab
Creating personal tab
You can edit any tab online and save it as your Personal.

You can edit, replace or remove any tab part or add personal notes – all changes will be seen only by you.

Personal tabs can be accessed anytime from any device, even offline.
Learn more »
comments
print report bad tab
guest
You may want to rate the tab now too:
select rating
Wanna post a correction for this tab? Suggest correction