Oops, an error
Loading. Please wait.

I Forgive You Tab

494 views 1 this week
no commentswrite comment
1 2 3 4 5
please rate
add to favorites
launch autoscroll
font size
0
reset
how to read this tab
guitar tuner
Autoscroll
slow
fast
+/-
esc
set tempo
stop
Help us to improve Ultimate-Guitar.com Take our survey!
×
Author
Difficulty
novice
Title: I Forgive You
Artist: Every Avenue
Album: Picture Perfect(2009)

Tabbed by: angeluskai@hotmail.com

Tuning: Guitar 1- Standard-EADGBe
        Guitar 2- Drop D-DADGBe

If you have any corrections, feel free to leave a comment. Enjoy!

GUITAR 1

Verse
e:----------------------------------------------|
B:----------------------------------------------|
G:----------------------------------------------|
D:--------8(x8)-9(x16)-------8(x8)-9(x8)-11(x8)-|
A:--9(x8)--------------9(x8)--------------------|
E:----------------------------------------------|
    *     *     *      *     *     *     **

e:---------------------------------    --------------------|
B:---------------------------------    --------------------|
G:---------------------------------    --------------------|
D:--9(x8)-11(x8)-------------------(x2)-9(x8)-11(x8)-------|
A:---------------9(x4)-8(x4)-6(x4)-    --------------9(x9)-|
E:---------------------------------    --------------------|
    *     **     *     *     *          *     **     *

Pre-Chorus/Chorus
e:------------------------------------|
B:----------------------------------7-|
G:------6-6h8p6-----------6-6h8p6-----|
D:--6-8---------9-8---6-8---------9---|
A:------------------------------------|
E:------------------------------------|

e:--------14-------14----14-    --------13-------13----13-|
B:-----11-------11----------    -----11-------11----------|
G:--11-------11-------11----    --11-------11-------11----|
D:--------------------------(x3)--------------------------|(x2)
A:--------------------------    --------------------------|
D:--------------------------    --------------------------|

Bridge
e:--------------11----    --------------------|
B:-----11----14----14-    -----11-------------|
G:--11----11----------    --11----11-10h11----|
D:--------------------(x7)-----------------11-|
A:--------------------    --------------------|
E:--------------------    --------------------|

e:-------------------------------------------------------|
B:-------------------------------------------------------|
G:-------------------------------------------------------|
D:--------------------------------------11-11-99-88-99-8~|
A:--44-22-11-22-66-44-22-44-88-66-44-66------------------|
E:-------------------------------------------------------|
    ** ** ** ** ** ** ** ** ** ** ** **

Pre-Chorus/Filler
e:------------    ---------------|
B:--7--9--11/-    --7--9--11--12-|
G:--6--8--10/-    --6--8--10--10-|
D:------------(x2)---------------|
A:------------    ---------------|
E:------------    ---------------|


GUITAR 2

Verse
e:--------------------------    ---------|
B:--------------------------    ---------|
G:--11----6/--4--6----------    -4--6----|
D:--12----6/--4--6--4--3--1-(x2)-4--6--4-|
A:---9----4/--2--4--4--3--1-    -2--4--4-|
D:------------------4--3--1-    -------4-|

Pre-Chorus/Chorus
e:------------------    -------------|
B:------------------    -------------|
G:--8--4-----6-7-8--    --8--4-----6-|
D:--8--4--4--6-7-8--(x3)--8--4--4--6-|
A:--6--2--4--4-5-6--    --6--2--4--4-|
D:--------4---------    --------4----|

Bridge
e:-----------    -------------------------|
B:-----------    -------------------------|
G:--4-----6--    --------------8--6--4--6-|
D:--4--1--6--(x2)--4--6--8--9--8--6--4--6-|
A:--2--1--4--    --2--4--6--8--6--4--2--4-|
D:-----1-----    -------------------------|

Pre-Chorus/Filler
e:-------------|
B:-------------|
G:-----3--4--7-|
D:--4--3--4--7-|
A:--4--1--2--5-|
D:--4----------|
    *  *  *  *

Verse
Pre-Chorus/Chorus
Verse
Pre-Chorus/Chorus
Bridge
Pre-Chorus/Filler
Pre-Chorus/Chorus
Suggest correction
Give kudos to tab author, rate the tab!
1 2 3 4 5
comments
print report bad tab
guest
You may want to rate the tab now too:
select rating
Wanna post a correction for this tab? Suggest correction