Oops, an error
Loading. Please wait.

Mindset Bass Tab

892 views 1 this week
no commentswrite comment
1 2 3 4 5
1 last vote to show rating
add to favorites
launch autoscroll
font size
0
reset
guitar tuner
Autoscroll
slow
fast
+/-
esc
set tempo
stop
Help us to improve Ultimate-Guitar.com Take our survey!
×
Author
Difficulty
novice
MINDSET
BY EVERY AVENUE
Standard Tuning
TABBED BY j_daluz_005@yahoo.com

I Saw That There Are no Tabs for this song so I created one hope you enjoyed it cause I 
did :)))

INTRO
G|-------------------------------------------------|
D|-------------------------------------------------|
A|-2-2--3-3--3--------------2-2-3-3--7-5-----------|
E|-------------2-2--3-3--3---------------3---------|

Verse
G|-------------------------------------------------|
D|-------------------------------------------------|
A|-2-2--3-3--3--------------7-5--------------------|
E|----------------2-2--3-3------3------------------|

G|-------------------------------------------------|
D|-------------------------------------------------|
A|-2-2--3-3--3--5-5-5-5-5-5-5-5-5-5-5-5-5-5-5------|
E|-------------------------------------------------|

G|-------------------------------------------------|
D|-------------------------------------------------|
A|-2-2--3-3--3--------------2-2-3-3--7-5-----------|
E|-------------2-2--3-3--3---------------3---------|

G|------------------------------------------------------|
D|------------------------------------------------------|
A|-2-2--3-3--3-------------5-5-5-5-5-5-5-5-5-5-5-5-5-5-5|
E|-------------2-2--3-3--3------------------------------|

Chorus
G|-------------------------------------------------|
D|-------------------------------------------------|(3x)
A|-3-3-3-3-3-3--7-7--5-5--7-7-7-7-7----------------|
E|-------------------------------------------------|

G|-------------------------------------------------|
D|-------------------------------------------------|
A|-3-3-3-3-3--7--5---------------------------------|
E|-------------------------------------------------|

Pre-Verse
G|-------------------------------------------------|
D|-------------------------------------------------|
A|-2-2--3-3--3--------------2-2-3-3--7-5-----------|
E|-------------2-2--3-3--3---------------3---------|

(REPEAT VERSE)
(REPEAT CHORUS)




BRIDGE
G|-------------------------------------------------|
D|-------------------------------------------------|
A|-------------------------------------5(30X)------|
E|--7-8--4---7-8--4---7-8--4--7-8---4--------------|


OUTRO
G|-------------------------------------------------|
D|-------------------------------------------------|(3X)
A|-7-7-7-7-7--11-11-9-9-11-11----------------------|
E|-------------------------------------------------|

G|-------------------------------------------------|
D|-------------------------------------------------|
A|-7-7-7-7-7--11--9--------------------------------|
E|-------------------------------------------------|
Suggest correction
Give kudos to tab author, rate the tab!
1 2 3 4 5
comments
print report bad tab
guest
You may want to rate the tab now too:
select rating
Wanna post a correction for this tab? Suggest correction