Oops, an error
Loading. Please wait.

Only Place I Call Home Bass Tab

443 views 1 this week
no commentswrite comment
1 2 3 4 5
3 more votes to show rating
add to favorites
launch autoscroll
font size
0
reset
guitar tuner
Autoscroll
slow
fast
+/-
esc
set tempo
stop
Help us to improve Ultimate-Guitar.com Take our survey!
×
Author
0:17
G|------------------------------------------|
D|-4-44-4-44-----------------------------97-|
A|-----------4-44-4-89-6-66-6-89-2-22-2-8---|
E|------------------------------------------|

0:26
G|---------------------------------------------|
D|-4-44-4-4------------------------------------|
A|---------6-4-44-4-24-6-69-4-48-2-22-2222222~-|
E|---------------------------------------------|

*Break*

0:46
G|------------------------------------------6---|
D|--------------------4--4--44/864---6-48--6-86-|
A|-2-/9-6-4-2---4-4-2--2--2--------4--4--44-----|
E|------------2---------------------------------|

1:03
G|------------------------------------------|
D|-4-44-4-44-----------------------------97-|
A|-----------4-44-4-89-6-66-6-89-2-22-2-8---|
E|------------------------------------------|

G|-------------------------------------------------|
D|-4-4-4-4-4-4-------------------------------------|
A|-------------4-4-4-4-2-4-6-6-6-6-6-4-2-2-2-2-2-2-|
E|-------------------------------------------------|

1:20
G|------------------------------------------|
D|-4-44-4-44-----------------------4--9--9--|
A|-----------4-44-4-89-6-66-6-89-2--2---9---|
E|------------------------------------------|

G|-------------------------------------------------|
D|-------------------------------------------------|
A|-9-9-9-9-9-9\4-4-4-4-2-4-6-6-9-4-4-8-2-2-2-2-2-2-|
E|-------------------------------------------------|

1:38
G|------------------/6-8------------------|
D|---4-4---6-8-----------8---3-4---6-3-4~-|
A|-2-----4-----6-8-9-------2-----4--------|
E|----------------------------------------|

1:46
G|-----------------------------------|
D|-----------------------------------|
A|-2-/9-6-4-2---4-4-2-/9-6-4-2---4-4-|
E|------------2----------------2-----|

2:04
G|---------------------------------------------------------|
D|---------------------------------------------------------|
A|-2-2-2-2-2-2-2-2-2-2-2-2-4-4-4-4-4-4-4-4-4-/161616161616-|
E|---------------------------------------------------------|

2:12
G|------------------------------------------|
D|---------------------------------------97-|
A|-9-99-9-99-4-44-4-89-6-66-6-89-2-22-2-8---|
E|------------------------------------------|

G|-------------------------------------------------|
D|-4-4-4-4-4-4-------------------------------------|
A|-------------4-4-4-4-2-4-6-6-6-6-6-4-2-2-2-2-2-2-|
E|-------------------------------------------------|

2:29
G|------------------------------------------|
D|-4-44-4-44-----------------------4--9--9--|
A|-----------4-44-4-89-6-66-6-89-2--2---9---|
E|------------------------------------------|

G|-------------------------------------------------|
D|-------------------------------------------------|
A|-9-9-9-9-9-9\4-4-4-4-2-4-6-6-9-4-4-8-2-2-2-2-----|
E|-------------------------------------------------|

2:47
G|----------------------------------------|
D|----------------------------------------|
A|-----------6--6-6--6-4--4-4--4-9--8-8-8-|
E|-4--4-4--4------------------------------|

G|---------------------------------------------------------------|
D|---------------------------------------------------------------|
A|-----------6--6-6--6-4-4-4-4-4-4/16-16-16-16-16-16\14-16-18-16-|
E|-4--4-4--4-----------------------------------------------------|

*Break*

3:18
G|-------------------------------------------------|
D|-4-4-4-4-4---------------------------------------|
A|-----------6-4-4-4-4-2-4-6-6-6-6-6-4-2-2-2-2-2-2-|
E|-------------------------------------------------|

G|------------------------------------------|
D|-4-44-4-44-----------------------4--9--9--|
A|-----------4-44-4-89-6-66-6-89-2--2---9---|
E|------------------------------------------|

G|-------------------------------------------|
D|-------------------------------------------|
A|-9-9-9-9-9-9\4-4-4-4-2-4-6-6-6-8-8-8-2~~~~-|
E|-------------------------------------------|
Tabbed by Dave Vucko
Suggest correction
Give kudos to tab author, rate the tab!
1 2 3 4 5
comments
print report bad tab
guest
You may want to rate the tab now too:
select rating
Wanna post a correction for this tab? Suggest correction