Oops, an error
Loading. Please wait.

Tell Me Im A Wreck Bass Tab

version 1
version 1

Whole song

2,676 views 24 this week
1 commentread comment
1 2 3 4 5
excellent!
x 2
add to favorites
launch autoscroll
font size
0
reset
guitar tuner
Tab Pro tools
  • play this tab
  • loop segment
  • change instrument
  • show fretboard
  • metronome
Autoscroll
slow
fast
+/-
esc
set tempo
stop
Contributor
Difficulty
novice
Hey guys, !FIRST TAB!

I worked it out by ear because I liked the song sooooo much and there were no tabs for it.

I'm pretty damn sure this is all right but please, constructive criticism is much welcomed. :)

Well, my timings might be slightly off, but the notes/tabs are right so all you gotta do 
is get the timing right yourself. The note changes are fairly easy to pick out.

~~~~~~~~~~~~~~~~~~~~~~~~~~~~~~~~~~~~~~~~~~~~~~~~~~~~~~~~~~~~~~~~~~~~~~~~~~~~~

!STANDARD TUNING!

INTRO(NO BASS)

VERSE(Slide in when he sings 'could') : 00:16
G|---------------------------------------------------------|
D|---------------------------------------------------------|
A|--------------------33333333-55555533-1111111-333333-----|
E|-12\1111111111111111-------------------------------------|
      ^^Ones, 16times                ^Don't miss the 3!


PRE-CHORUS 'But I cant take all...' : 00:27
G|------------------------------------------------------|
D|------------------------------------------------------|
A|5555555555555(13x)-3-3-3-5555555555555-3-3-3----------|
E|------------------------------------------------------|

G|------------------------------------------------------|
D|------------------------------------------------------|
A|55555555555555555(17x)-33-33/15-1515------------------|
E|------------------------------------------------------|
                               ^^^^Fifteens

CHORUS(Come in when he sings 'wreck') : 00:43
G|------------------------------------------------------|
D|------------------------------------------------------|
A|----------33333333-55555555-11111111------------------|
E|-11111111---------------------------------------------|

CHORUS(Continued) : 00:50
G|------------------------------------------------------|
D|------------------------------------------------------|
A|----------33333333-11-11/15-1515-1515-----------------|
E|-11111111---------------------------------------------|
                     ^Ones ^Fifteens

G|------------------------------------------------------|
D|------------------------------------------------------|
A|----------33333333-55555555-11111111------------------|
E|-11111111---------------------------------------------|

G|------------------------------------------------------|
D|------------------------------------------------------|
A|----------33333333--1111111/12------------------------|
E|-11111111---------------------------------------------|


POST-CHORUS : 1:13
G|------------------------------------------------------|
D|------------------------------------------------------|
A|----------33333333------------------------------------|
E|-11111111---------------------------------------------|


VERSE 2  : 1:17
G|------------------------------------------------------|
D|------------------------------------------------------|
A|--------------------33333333-55555533-1111111-333-----|
E|-1111111111111111-------------------------------------|
     ^^^Ones, 16times                ^Don't miss the 3!


G|------------------------------------------------------|
D|------------------------------------------------------|
A|--------------------33333333-55555533-1111111-333333--|
E|-1/131313.....----------------------------------------|
     ^^^Thirteens, 16times           ^Don't miss the 3!


PRE-CHORUS 'But I think...' : 1:38
G|------------------------------------------------------|
D|------------------------------------------------------|
A|5555555555555(13x)-3-3-3-5555555555555-3-3-3----------|
E|------------------------------------------------------|

G|------------------------------------------------------|
D|------------------------------------------------------|
A|55555555555555555(17x)-33-33/15-1515------------------|
E|------------------------------------------------------|
                               ^^^^Fifteens

CHORUS 2 (Come in when he sings 'wreck') : 1:54
G|------------------------------------------------------|
D|------------------------------------------------------|
A|-------------33333333-55555555-11111111---------------|
E|-12\11111111------------------------------------------|

CHORUS(Continued) : 2:02
G|------------------------------------------------------|
D|------------------------------------------------------|
A|----------33333333-11-11/15-1515-1515-----------------|
E|-11111111---------------------------------------------|
                     ^Ones ^Fifteens

G|------------------------------------------------------|
D|------------------------------------------------------|
A|----------33333333-55555555-11111111------------------|
E|-11111111---------------------------------------------|

G|------------------------------------------------------|
D|------------------------------------------------------|
A|----------33333333--11111111/1515151515151515---------|
E|-11111111---------------------------------------------|
                      ^^Ones   ^^Fifteens

SOLO : 2:24
G|------------------------------------------------------|
D|------------------------------------------------------|
A|----------33333333-55555555-11111111------------------|
E|-11111111---------------------------------------------|

G|----------------------------------------------------------------|
D|----------------------------------------------------------------|
A|----------33333333--111111111111-5555-7777-9999-1212..---15~~---|
E|-11111111-------------------------------------------------------|
                      ^^Ones,12x                  ^Twelves,8x

--

CHORUS(Come in when he sings 'wreck') : 2:52
G|---------------------------------------------------------|
D|---------------------------------------------------------|
A|-------------33333333-55555555-11111111------------------|
E|-12\11111111---------------------------------------------|

CHORUS(Continued) : 3:00
G|------------------------------------------------------|
D|------------------------------------------------------|
A|----------33333333-11-11/15-1515-1515-----------------|
E|-11111111---------------------------------------------|
                     ^Ones ^Fifteens

G|------------------------------------------------------|
D|------------------------------------------------------|
A|----------33333333-55555555-11111111------------------|
E|-11111111---------------------------------------------|

G|------------------------------------------------------|
D|------------------------------------------------------|
A|----------33333333--00-11-00-11/1515151515151515------|
E|-11111111---------------------------------------------|
                         ^^Ones^^ ^^Fifteens, 8 times

G|------------------------------------------------------|
D|------------------------------------------------------|
A|----------33333333--00-11-00-11/1515151515151515------|
E|-11111111---------------------------------------------|
                         ^^Ones^^ ^^Fifteens, 8 times

OUTRO : 3:30
G|------------------------------------------------------|
D|------------------------------------------------------|
A|----------33333333--11111111/15-----------------------|
E|-11111111---------------------------------------------|


Thanks for taking the time to view my tab! :)

Drop me a mail if you would like to discuss how the world is gonna be taken over by 
cockroaches or if you want a cookie.

mervanator@gmail.com

-Mervin#13ftw.
comments
We did not receive enough feedback on this tab! Please rate:
print report bad tab
1 2 3 4 5
1 comment total.
0 reply
usmur wrote on April 7 2014, 06:33 am

great tab, but are you sure pre-chorus is not like

A|-5555555555555(13x)-3-3-3-1111111111111-3-3-3-|
?

I want to post or [tab]
guest
You may want to rate the tab now too:
select rating
Please do not post tabs as comments. Select "correction" instead!