Oops, an error
Loading. Please wait.

Tell Me Im A Wreck Tab

version 1
version 1

Whole song

41,045 views 30 this week
4 commentsread comments
1 2 3 4 5
excellent!
x 26
add to favorites
launch autoscroll
font size
0
reset
how to read this tab
guitar tuner
Autoscroll
slow
fast
+/-
esc
set tempo
stop
Help us to improve Ultimate-Guitar.com Take our survey!
×
Author
Difficulty
intermediate
This is my first tab ever, so feel free to post any corrections if you think there's 
wrong with it. This may not sound 100% like the real song but this is pretty much how it is 
by Every Avenue (I didn't tab guitar 2). Hope you enjoy it! :)

Verse 1

e|-------------------------------------------------------------------|
B|-------------------------------------------------------------------|
G|-------------------------------------------------------------------|
D|-----------------------------------------------------------------3-|
A|-------------------33333333-555555-33-11111111-33333333----------3-|
E|--1111111111111111--------------------------------------11111111-1-|
pm. ................ ........ ...... .. ........ ........ ........

Verse 1 (continued) **

e|---------------------------------------------------------|
B|---------------------------------------------------------|
G|---------------------------------------------------------|
D|---------------------------------------------------------|
A|--------------------33333333-555555-33-11111111-33333333-|
E|-8/1111111111111111--------------------------------------|
pm.  ................ ........ ...... .. ........ ........

Pre-chorus

e|---------------------------------------------------------|
B|---------------------------------------------------------|
G|-7*------5-5-5-3*------5-5-5-7*-------5-5--5-5--5--5-5-5-|
D|-5*------5-5-5-3*------5-5-5-7*-------5-5--5-5--5--5-5-5-|
A|-5*------3-3-3-1*------3-3-3-5*-------3-3--3-3--3--3-3-3-|
E|---------------------------------------------------------|

Chorus

e|-----------------------------------------------------------------------|
B|-----------------------------------------------------------------------|
G|-------------55555555-77777777-------------------55555555--3-3--3-3--3-|
D|----33333333-55555555-77777777-88888888-33333333-55555555--3-3--3-3--3-|
A|-10/33333333-33333333-55555555-88888888-33333333-33333333--1-1--1-1--1-|
E|--8/11111111-------------------66666666-11111111-----------------------|

e|--------------------------------------------------------------------|
B|--------------------------------------------------------------------|
G|-3-3--3-3-5-5----------55555555-77777777-------------------55555555-|
D|-3-3--3-3-5-5-33333333-55555555-77777777-88888888-33333333-55555555-|
A|-1-1--1-1-3-3-33333333-33333333-55555555-88888888-33333333-33333333-|
E|--------------11111111-------------------66666666-11111111----------|

e|-------------|
B|-------------|
G|--33333333-3-|
D|--33333333-3-|
A|--11111111-1-|
E|-------------|
pm. ........

Instrumental break

guitar 1                    guitar 2
e|-------------------|      e|-8---------------8---------------|
B|-------------------|      B|-----8---6---8-------8---6---5-6-|
G|-------------------|      G|---5---5---5---5---5---5---5-----|
D|-33333333-55555555-|      D|---------------------------------|
A|-33333333-55555555-|      A|---------------------------------|
E|-11111111-33333333-|      E|---------------------------------|

Verse 2

e|----------------------------------------------------| **
B|----------------------------------------------------|
G|--------------------------------------------------5-|
D|--------------------------------------------------5-|
A|-------------------33333333-555555-33-11111111-33-3-|
E|--1111111111111111----------------------------------|
pm. ................ ........ ...... .. ........ ..

e|-------------------------------------------------------|
B|-------------------------------------------------------|
G|------------------55555555-777777-55-33333333-55555555-|
D|-3333333333333333-55555555-777777-55-33333333-55555555-|
A|-3333333333333333-33333333-555555-33-11111111-33333333-|
E|-1111111111111111--------------------------------------|

Pre-chorus

e|--------------------------------------------------------|
B|--------------------------------------------------------|
G|-7*------5-5-5-3*-----5-5-5-7*-------5-5--5-5--5--5-5-5-|
D|-7*------5-5-5-3*-----5-5-5-7*-------5-5--5-5--5--5-5-5-|
A|-5*------3-3-3-1*-----3-3-3-5*-------3-3--3-3--3--3-3-3-|
E|--------------------------------------------------------|

Chorus

e|-----------------------------------------------------------------------|
B|-----------------------------------------------------------------------|
G|-------------55555555-77777777-------------------55555555--3-3--3-3--3-|
D|----33333333-55555555-77777777-88888888-33333333-55555555--3-3--3-3--3-|
A|-10/33333333-33333333-55555555-88888888-33333333-33333333--1-1--1-1--1-|
E|--8/11111111-------------------66666666-11111111-----------------------|

e|--------------------------------------------------------------------|
B|--------------------------------------------------------------------|
G|-3-3--3-3-5-5----------55555555-77777777-------------------55555555-|
D|-3-3--3-3-5-5-33333333-55555555-77777777-88888888-33333333-55555555-|
A|-1-1--1-1-3-3-33333333-33333333-55555555-88888888-33333333-33333333-|
E|--------------11111111-------------------66666666-11111111----------|

e|----------|
B|----------|
G|-33333333-|
D|-33333333-|
A|-11111111-|
E|----------|

Solo

e|----------------------------------5h6p5--------------------8-8-8-5-5-5-|
B|----------------------------3-6-3-------6------------3-5-6-------------|
G|--------------------------5---------------3--------5-------------------|
D|-----3---3-------3---3h5-------------------------3---------------------|
A|-3-5---5-----3-5---5-------------------------3h5-----------------------|
E|-----------------------------------------------------------------------|

e|-5-5-8-8-8-3-3-3-3-3-----------------------------------------------------|
B|-------------------------------------------------------------------------|
G|---------------------------------------------------------------------2-2-|
D|---------------------------------------------2-2-2-2-3-3-3-3-5-5-5-5-----|
A|---------------------1-1-1-1-3-3-3-3-5-5-5-5-----------------------------|
E|-------------------------------------------------------------------------|
pm.                    . . . . . . . . . . . . . . . . . . . . . . . . . .

e|-------------------|
B|--------3-6-3-6>---|
G|--2-2-5------------|
D|-------------------|
A|-------------------|
E|-------------------|
    . .

Chorus

e|-----------------------------------------------------------------------|
B|-----------------------------------------------------------------------|
G|-------------55555555-77777777-------------------55555555--3-3--3-3--3-|
D|----33333333-55555555-77777777-88888888-33333333-55555555--3-3--3-3--3-|
A|----33333333-33333333-55555555-88888888-33333333-33333333--1-1--1-1--1-|
E|--8/11111111-------------------66666666-11111111-----------------------|

e|--------------------------------------------------------------------|
B|--------------------------------------------------------------------|
G|-3-3--3-3-5-5----------55555555-77777777-------------------55555555-|
D|-3-3--3-3-5-5-33333333-55555555-77777777-88888888-33333333-55555555-|
A|-1-1--1-1-3-3-33333333-33333333-55555555-88888888-33333333-33333333-|
E|--------------11111111-------------------66666666-11111111----------|

e|------------------------------------------------------------------------|
B|------------------------------------------------------------------------|
G|--3333333333333333----------55555555-3333333333333333----------55555555-|
D|--3333333333333333-33333333-55555555-3333333333333333-33333333-55555555-|
A|--1111111111111111-33333333-33333333-1111111111111111-33333333-33333333-|
E|-------------------11111111---------------------------11111111----------|
pm. ..  ..  ..  ..                     ..  ..  ..  ..

e|--------------|
B|--------------|
G|--33333333-3--|
D|--33333333-3--|
A|--11111111-1--|
E|--------------|
pm. ........


Legend :

* : reverb effect
pm. : palm muting
/ : slide
h : hammer-on
p : pull-off
> : hold out
** : only bass playing. Those tabs are for playing the bass notes on guitar.
Suggest correction
What's this?
You can suggest a correction to this tab. Community and Mods will review your correction and vote to approve or reject it.
comments
print report bad tab
4 comments total. Showing first comments.
0 reply
kdilnexqo 86 wrote on February 2 2010, 04:41 pm

Excellent tab :)

0 reply
Hi_Im_Ryan 11 wrote on May 16 2010, 06:14 pm

Nice Job Dude.

0 reply
crazed-fingers 14 wrote on March 10 2011, 09:38 am

this is great i tabed it but urs is better so never mind lol good ob

guest
You may want to rate the tab now too:
select rating
Please do not post tabs as comments. Select "correction" instead!