Oops, an error
Loading. Please wait.

Tell Me Im A Wreck Bass Tab

version 2
version 2

Whole song

281 views 1 this week
no commentswrite comment
1 2 3 4 5
3 more votes to show rating
add to favorites
launch autoscroll
font size
0
reset
guitar tuner
Autoscroll
slow
fast
+/-
esc
set tempo
stop
Help us to improve Ultimate-Guitar.com Take our survey!
×
Author
/ Slide
*Mute
Listen to the song for all timings.

Intro (No bass)


Verse 1 (0:15)
G|--------------------------------------------------------------------------------|
D|--------------------------------------------------------------------------------|
A|---------3(x8)-5(x6)-3(x2)-1(x8)-3(x8)------------------------------------------|
E|13/1(x16)-----------------------------------------------------------------------|

Pre-Chorus
G|---------------------------------------------------------------------------------|
D|---------------------------------------------------------------------------------|
A|-5(x13)-3(x3)-1(x13)-3(x3)-5(x16)-3(x4)/15(x4)-----------------------------------|
E|---------------------------------------------------------------------------------|

Chorus
G|-------------------------------------------------------------------------------------|
D|-------------------------------------------------------------------------------------|
A|------3(x8)-5(x8)-1(x8)-------3(x8)-1(x4)-13(x5)-15(x2)-------3(x8)-5(x8)-1(x8)------|
E|-1(x8)-----------------1(x8)---------------------------1(x8)-------------------------|

G|--------------------------------------------------------------------------------------|
D|--------------------------------------------------------------------------------------|
A|-----3(x8)----1(x8)/13--------------3(x8)---------------------------------------------|
E|-1(x8)----------------1(x8)-----------------------------------------------------------|

Verse 2
G|------------------------------------------------------------------------------------|
D|------------------------------------------------------------------------------------|
A|-------3(x8)-5(x6)-3(x2)-1(x8)-3(x4)------------15(x8)-17(x6)-15(x2)-13(x8)-15(x8---|
E|-1(x16)-----------------------------1/13(x16)---------------------------------------|

Pre-Chorus

Chorus 2
G|--------------------------------------------------------------------------------------|
D|--------------------------------------------------------------------------------------|
A|---------3(x8)-5(x8)-1(x8)-------3(x8)-1(x4)-13(x5)-15(x2)--------3(x8)-5(x8)-1(x8)---|
E|-13/1(x8)-----------------1(x8)---------------------------1(x8)-----------------------|

G|-------------------------------------------------------------------------------|
D|-------------------------------------------------------------------------------|
A|------3(x8)-1(x8)/13(x8)-------------------------------------------------------|
E|-1(x8)-------------------------------------------------------------------------|

Guitar Solo
G|----------------------------------------------------------------------------------|
D|----------------------------------------------------------------------------------|
A|------3(x8)-5(x8)-1(x8)------3(x8)-1(x16)/13(x16)-(REST)--------------------------|
E|-1(x8)-----------------1(x8)------------------------------------------------------|

Chorus 3
G|---------------------------------------------------------------------------------------|
D|---------------------------------------------------------------------------------------|
A|---------3(x8)-5(x8)-1(x8)-------3(x8)-1(x4)-13(x5)----------3(x8)-5(x8)-1(x8)---------|
E|-13/1(x8)-----------------1(x8)---------------------1(x8)------------------------------|

G|--------------------------------------------------------------------------------------|
D|--------------------------------------------------------------------------------------|
A|------3(x8)-**1(x2)-**1(x2)/**13(x2)-**13(x2)-------3(x8)-**1(x2)-**1(x2)-13(x8)------|
E|-1(x8)-------------------------------------1(x8)--------------------------------------|

Ending Riff
G|-------------------------------------------------------------------------------|
D|-------------------------------------------------------------------------------|
A|------3(x8)-1(x8)/13-----------------------------------------------------------|
E|-1(x8)-------------------------------------------------------------------------|

This is the most accurate way I know how to play this song. Hope it helps, and have fun!
Suggest correction
Give kudos to tab author, rate the tab!
1 2 3 4 5
comments
print report bad tab
guest
You may want to rate the tab now too:
select rating
Wanna post a correction for this tab? Suggest correction