Oops, an error
Loading. Please wait.

Think Of You Later Tab

version 1
version 1

Whole song

Interactive

22,148 views 6 this week
3 commentsread comments
1 2 3 4 5
accurate
x 4
add to favorites
launch autoscroll
font size
0
reset
how to read this tab
guitar tuner
Autoscroll
slow
fast
+/-
esc
set tempo
stop
Help us to improve Ultimate-Guitar.com Take our survey!
×
Author
Song:   Think Of You Later
Artist: Every Avenue
Album:  Shh, Just Go With It

[guitar 1]
e------3-------0-------------3-----------------|
B--------3--------2------3/5----5--3-----------|
G--0-----------------------------------4-2-----|
D------------0---------------------------------|
A----------------------3-----------------------|
E----------------------------------------------| 2x

[guitar 2]
e-------------------------------------|
B-------------------------------------|
G--0-0--0-0-0-2h4p0-------------------|
D-------------------------------------|
A-------------------------------------|
E-------------------------------------| 2x
[play chords with power chords]

                   C
This might be my last chance
                   G
So maybe I should take it. 
                   EM
I just hope your listening, 
                    D
To everything I’m saying. 
                    C
I miss the long drives, the car rides, 
      G
The bad fights, the good times. 
      F
The way you make me feel 
      D
will never leave my mind. 


C                          G
Think of you later in my empty room, 
      D          EM     D 
Where I, I will fall asleep alone. 
C                          G
Think of you later in my empty room, 
      D          EM     D      C
Where I, I will fall asleep alone. 

[guitar 2]
e-------------------------------------|
B-------------------------------------|
G--4-2p0-----0-0-0-2h4p0--------------|
D----------2--------------------------|
A-------------------------------------|
E-------------------------------------| 4x

               C
So, quit your crying 
                         G
And wipe the tears from your eyes. 
                    EM
‘Cause this is “see you later,” 
          D
I’m not into goodbyes. 
           C
Watch the brake lights 
                        
as I leave your drive-way, 
    G 
The warm nights, will stay beside me, 
EM                 D
No matter where I go! 



C                          G
Think of you later in my empty room, 
      D          EM     D 
Where I, I will fall asleep alone. 
C                          G
Think of you later in my empty room, 
      D          EM     D      C
Where I, I will fall asleep alone. 


[guitar 1]
[im not totally sure about this part. but its something like this]
e----------------------------------------|
B--12------/-15------10-/12-\-10-\-8-----|
G-----x8--------x8-----------------------|
D--9-------/-12------7--/9----\7--\--5---|
A----------------------------------------|
E----------------------------------------| 2x

[guitar 2]
[just fool around with this]
e--------10--------10---10-8-7-------------10--|
B--7-8--------7-8----------------10-8h10p8-----|
G----------------------------------------------|
D----------------------------------------------|
A----------------------------------------------|
E----------------------------------------------|


                 C
Watch the brake lights 
                        
as I leave your drive-way, 
       G 
The warm nights, will stay beside me, 
EM                     D
No matter where I go! 


          D
I’m not into goodbyes. 
           C
Watch the brake lights 
                        
as I leave your drive-way, 
    G 
The warm nights, will stay beside me, 
EM                 D
No matter where I go! 



C                          G
Think of you later in my empty room, 
      D          EM     D 
Where I, I will fall asleep alone. 
C                          G
Think of you later in my empty room, 
      D          EM     D 
Where I, I will fall asleep alone.
C                          G
Think of you later in my empty room, 
      D          EM     D 
Where I, I will fall asleep alone. 
C                          G
Think of you later in my empty room, 
      D          EM     D 
Where I, I will fall asleep alone.

[guitar 2]
e-------------------------------------|
B-------------------------------------|
G--4-2p0-----0-0-0-2h4p0--------------|
D----------2--------------------------|
A-------------------------------------|
E-------------------------------------| 4x
Suggest correction
What's this?
You can suggest a correction to this tab. Community and Mods will review your correction and vote to approve or reject it.
comments
print report bad tab
3 comments total.
0 reply
ballaman82 161 wrote on July 26 2008, 04:38 pm

nice work just noticed a few things.

i think the sixth note in the intro should be third fret instead of second


in the verse guitar 2 plays this or somethings like it in the background

|-----------------------------
|---------------------3-3-3-3-
|-2h4-2h4-2-2-2h4-2h4---------
|-----------------------------
|-----------------------------
|-----------------------------

and the second part of the solo is

|----10----10-------------------------------10----|
|7-8---7-8---7-8--12-12-12-10-10-10p8-8-7-8----8--|
|------------------------------------9------------|
|-------------------------------------------------|
|-------------------------------------------------|
|-------------------------------------------------|

thats what i think but great work on it it is very accurate these are just parts you forgot

0 reply
tcheloiaco 27 wrote on March 14 2010, 10:49 pm

intro is:

|---3-------------------3----------------
|----------3-------3/5-----5--3----------
|-----0------0-------------------4--2----
|-5------0-------------------------------
|--------------3-------------------------
|----------------------------------------

0 reply
xXElimin8erXx 301 wrote on January 1 2015, 08:22 pm

Guys, if you're trying to play that background guitar part during the verses it's as follows

First Verse
|---------------------------------|
|---------------------------------|
|-------------7p4-----------7p4---|
|--0----5h7--------0--5h7--------7|
|---------------------------------|
|---------------------------------|

|---------------------------------|
|---------------------------------|
|---------------------------------|
|--0----7h9--7p5--0--7h9--7p5-----|
|---------------------------------|
|---------------------------------|

Second Verse
|---------------------------------|
|---------------------------------|
|-------------7p4-----------7p4---|
|--0----5h7--------0--5h7--------7|
|---------------------------------|
|---------------------------------|

|---------------------------------|
|---------------------------------|
|---------------------------------|
|--0----7h9--7p5--0--7h9--7p5-----|
|---------------------------------|
|---------------------------------|

|---------------------------------|
|---------------------------------|
|-------------7p4-----------7p4---|
|--0----5h7--------0--5h7--------7|
|---------------------------------|
|---------------------------------|

|---------------------------------|
|---------------------------------|
|---------------------------------|
|--0----4h5--7p5--0--4h5--7p5-----|
|---------------------------------|
|---------------------------------|

guest
You may want to rate the tab now too:
select rating
Please do not post tabs as comments. Select "correction" instead!