Oops, an error
Loading. Please wait.

Tie Me Down Tab

2,063 views 12 this week
no commentswrite comment
1 2 3 4 5
excellent!
x 2
add to favorites
launch autoscroll
font size
0
reset
how to read this tab
guitar tuner
Tab Pro tools
  • play this tab
  • loop segment
  • change instrument
  • show fretboard
  • metronome
Autoscroll
slow
fast
+/-
esc
set tempo
stop
Contributor
----------------------------------------------------------------------------
                     "Tie Me Down" by Every Avenue
----------------------------------------------------------------------------

Half-Step Down

INTRO

Lead
Eb|---0----0----0----------------------------|
Bb|---3/5—-3/5--3-0----0----0----------------|
Gb|-----------------2--2/4--2/4--0-2-0-------|
Db|------------------------------------2-0---|
Ab|------------------------------------------|
Eb|------------------------------------------|

Eb|---0----0---0------0-0-0--0--0--0--0------|
Bb|---3/5—3/5--3-0----8-8-8--10-10-10-10-----|
Gb|----------------2-------------------------|
Db|------------------------------------------|
Ab|------------------------------------------|
Eb|------------------------------------------|

Rhythm
Eb|--------------------------------|
Bb|--------------------------------|
Gb|--------------------------------|   x2
Db|---9---7-7----------------7-----|
Ab|---7---5-5---7-7---7-7-7--5-----|
Eb|-------------5-5---5-5-5--------|



VERSE 1



Rhythm

Eb|----------------------------------|
Bb|----------------------------------|
Gb|----------------------------------|   x4
Db|-------9-------7------------------|
Ab|---7-7-7---5-5-5-------7------7---|
Eb|-------------------5-5-5--5-5-5---|
      * *     * *     * *    * *

Lead (Halfway Through)

Eb|---7-5-5-5-5----|
Bb|---7-5-4-5-4----|
Gb|----------------|
Db|----------------|
Ab|----------------|
Eb|----------------|


Pre-Chorus



Rhythm

Eb|----------------------------------------------|
Bb|----------------------------------------------|
Gb|----------------------------------------------|
Db|----------1-1-1---------2-2-2---------4-4-4---|
Ab|---4-4-4--2-2-2—-2-2-2--0-0-0--4-4-4--2-2-2---|
Eb|---2-2-2---------0-0-0---------2-2-2----------|

Lead
Eb|-------------------|
Bb|-------------------|
Gb|-------------------|
Db|-------------2-----|
Ab|-----4-7---2-------|
Eb|---5-----4-----4---|


Chorus

Rhythm  
Eb|--------------------------------------|
Bb|--------------------------------------|
Gb|--------------------------------------|    x4
Db|---2-2-2-2---------4-4-4-4-4-4-4-4----|
Ab|---0-0-0-0-2-2-2-2-2-2-2-2-2-2-2-2----|
Eb|-----------0-0-0-0--------------------|

Lead (3rd Time)
Eb|--------------------------------------|
Bb|--------------------------------------|
Gb|---4--4-4--4--4-4---------------------|
Db|---2--2-2--2--2-2--6--4-4--2--1-1-----|
Ab|---0--0-0--2--2-2--4--2-2--2--2-2-----|
Eb|-----------0--0-0---------------------|

INTRO

VERSE

PRE-CHORUS

CHORUS


Bridge
Eb|------------------------4---------------------|
Bb|---5----10--------------5---------------------|
Gb|---6----11----2---------6---------------------|
Db|---6----11----2---------6---------------------|
Ab|---4----9-----0---------4---2--4--6--7--------|
Eb|----------------------------------------------|

(Ouuuutttt...)
Eb|----------------------------------------------|
Bb|---10-----------------------------------------|
Gb|---11---11---9----8-----2---2-2-2-2-----------|
Db|---11---x----x----x-----2---1-2-2-2-----------|
Ab|---9----9----7----6-----0---0-0-0-0-----------|
Eb|----------------------------------------------|

  (Selllffff....)
Eb|----------------------------------------------|
Bb|----------------------------------------------|
Gb|---4-4-4--6-6-6--8-8-8-8-8-8------------------|
Db|---x-x-x--x-x-x--x-x-x-x-x-x------------------|
Ab|---2-2-2--4-4-4--6-6-6-6-6-6------------------|
Eb|----------------------------------------------|


Eb|----------------------------------------------------|
Bb|----------------------------------------------------|
Gb|----------------------------------------------------|
Db|-----------9--9-9-----------------------------------|
Ab|---7--7-7--7--7-7--9--9-11-9-11-9---9--9-11-9-11-9--|
Eb|---5--5-5----------7--7-7--7-7--7---7--7-7--7-9--7--|

CHORUS

INTRO
comments
We did not receive enough feedback on this tab! Please rate:
print report bad tab
1 2 3 4 5
I want to post or [tab]
guest
You may want to rate the tab now too:
select rating
Please do not post tabs as comments. Select "correction" instead!