Oops, an error
Loading. Please wait.

Echo I Hear Your Voice Ost tab

4,097 views 15 this week
2 commentsread comments
1 2 3 4 5
1 last vote to show rating
add to favorites
×
Save as Personal and add changes to this tab that will be seen only by you. Learn more ›
×
You can save this tab as Personal to edit and correct it or add notes. All changes will be seen only by you. Learn more »
launch autoscroll
font size
0
reset
how to read this tab
guitar tuner
edit
Autoscroll
slow
fast
+/-
esc
set tempo
stop
Author
Btw, I love the show, a lot.

No capo

Intro (G Bm Em)

e|7-7-5-5-3-3-2-2-3-3-2-2-0-----------------------------|
B|--------------------------3-3-5-----------------------|
G|--------------------------------------4-2---4---------|
D|------------------------------------------------------|
A|------------------------------------------------------|
E|------------------------------------------------------|

e|7-7-5-5-3-3-2-2-3-3-2-2-0-----------0-2---------------|
B|--------------------------3-3-5-----------------------|
G|------------------------------------------------------|
D|------------------------------------------------------|
A|------------------------------------------------------|
E|------------------------------------------------------|

G       Bm   Em  G        Bm             Em
oraen gieoge neon nal gidarineun geotcheoreom
     C                D
soksagideut sonjiseul hane
G     Bm         Em G        Bm              Em
geuriume yeongwonhi hollo namgyeojin geotcheoreom
       C                D
han georeumssik naege dagawa

(Intro)
       C                D
han georeumssik naege dagawa


        G          Bm          Em           C
gipeun mam gipeun sok gipeun neoui moksorireul
        G          Bm          Em          C
gipeun mam gipeun sok gipeun neoui moksoriga
       G Bm     Em   C
deullyeo~ deullyeo~
       G Bm     Em   C
deullyeo~ deullyeo~

(Intro)

oraen gieoge neon nal gidarineun geotcheoreom
soksagideut sonjiseul hane

gipeun mam gipeun sok gipeun neoui moksorireul
gipeun mam gipeun sok gipeun neoui moksoriga
deullyeo~ deullyeo~
deullyeo~ deullyeo~
gipeun mam gipeun sok gipeun neoui moksorireul
gipeun mam gipeun sok gipeun neoui moksoriga
deullyeo~ deullyeo~
deullyeo~ deullyeo~

(Intro)

And the English translation

As if you’re waiting in my long-time memories
You beckon to me as if you’re whispering
As if left alone forever in longing
You come to me step by step
You come to me step by step

Deep heart, deep thoughts, your deep voice
Deep heart, deep thoughts, your deep voice
I hear it, I hear it
I hear it, I hear it

As if you’re waiting in my long-time memories
You beckon to me as if you’re whispering

Deep heart, deep thoughts, your deep voice
Deep heart, deep thoughts, your deep voice
I hear it, I hear it
I hear it, I hear it
Deep heart, deep thoughts, your deep voice
Deep heart, deep thoughts, your deep voice
I hear it, I hear it
I hear it, I hear it

I was going to put the Korean lyrics on but it seems that it won't work. Sorry guys

            
            
Suggest correction
Creating personal tab
Creating personal tab
You can edit any tab online and save it as your Personal.

You can edit, replace or remove any tab part or add personal notes – all changes will be seen only by you.

Personal tabs can be accessed anytime from any device, even offline.
Learn more »
Give kudos to tab author, rate the tab!
1 2 3 4 5
comments
print report bad tab
2 comments total.
0 reply
caramelmould 10 Oct 06, 2013 10:29 AM

omg thanks for this it's really accurate this song is always in my head :)

0 reply
KayJay_93 100 Dec 30, 2013 04:18 PM

For the acoustic version the intro would go like this I guess:

e|---------------------------------------------|
b|-0-----------------------0-------------------|
g|--2-0---------------------2-0----------------|
D|------4-2-0-2-----------------4-2-0-2--4b----|
A|----------------2-0-----------------------2--|
E|---------------------------------------------|


The 4th fret is just bent slightly.

guest
You may want to rate the tab now too:
select rating
Wanna post a correction for this tab? Suggest correction