Oops, an error
Loading. Please wait.

Echo tab

2,858 views 1 this week
2 commentsread comments
1 2 3 4 5
1 last vote to show rating
add to favorites
×
Save as Personal and add changes to this tab that will be seen only by you. Learn more ›
×
You can save this tab as Personal to edit and correct it or add notes. All changes will be seen only by you. Learn more »
launch autoscroll
font size
0
reset
how to read this tab
guitar tuner
edit
Autoscroll
slow
fast
+/-
esc
set tempo
stop
Author
Difficulty
Echo by Every Single Day (Acoustic, Live, and Fingerpicking Version)
I hear your voice OST
Tabbed by: Arvin G.
youtube.com/watch?v=fUFCcebtrf0 (live version in action)

b = bend
s = slide

Standard Tuning

NOTE: Scroll down for other versions..

== Live Version =======================================================

Intro

   G                      Bm        Em
e|------------------------------------------------|
B|-10s12-12-10-10-8-8-7-7-8-8-7-------------------|
G|------------------------------9-7-9~------------|
D|-------------------------------------7s9-7-9~---|
A|------------------------------------------------|
E|------------------------------------------------|

   G                      Bm        Em
e|------------------------------------------------|
B|-10s12-12-10-10-8-8-7-7-8-8-7-------------------|
G|------------------------------9-7-9~--9b--------|
D|------------------------------------------------|
A|------------------------------------------------|
E|------------------------------------------------|

Verse

   G          Bm         Em
    oraen   gieoge~~     neon~~
e|------------------------------------------------|
B|---------------8------------8---------8---------|
G|----------------9----------9-------9---9--------|
D|-----------------9----------------9-9---9-------|
A|------------------------------------------------|
E|------------------------------------------------|

   G        Bm             Em
    nal gidarineun geotcheoreom~
e|------------------------------------------------|
B|-----------8----------------8---------8---------|
G|------------9--------------9-------9---9--------|
D|-------------9--------------------9-9---9-------|
A|------------------------------------------------|
E|------------------------------------------------|

         C                        D
    soksagideut~         naege dagawa~
e|-------8~--------8-------------10~--------10----|
B|-------8~------8---------------10~------10------|
G|-------9~-------9--------------11~----11--------|
D|-------10~---------------------12~--------------|
A|------------------------------------------------|
E|------------------------------------------------|

   G      Bm              Em
    geuriume      yeongwonhi~
e|------------------------------------------------|
B|--------8----------------8------------8---------|
G|---------9--------------9--------------9--------|
D|----------9------------9----------------9-------|
A|------------------------------------------------|
E|------------------------------------------------|

  G         Bm                   Em
   hollo namgyeojin~     geotcheoreom~
e|------------------------------------------------|
B|--------------8-------------------8-------8-----|
G|---------------9-----------------9-----9---9----|
D|----------------9---------------------9-9---9---|
A|------------------------------------------------|
E|------------------------------------------------|

        C                        D
 han georeumssik~        naege dagawa~
e|------8~----------8------------10~---10---------|
B|------8~--------8--8-----------10~-----10-------|
G|------9~---------9--9----------11~-------11-----|
D|------10~----------------------12~---------12---|
A|------------------------------------------------|
E|------------------------------------------------|

   G                      Bm        Em
e|------------------------------------------------|
B|-10s12-12-10-10-8-8-7-7-8-8-7-------------------|
G|------------------------------9-7-9~------------|
D|-------------------------------------7s9-7-9~---|
A|------------------------------------------------|
E|------------------------------------------------|

   G                      Bm        Em
e|------------------------------------------------|
B|-10s12-12-10-10-8-8-7-7-8-8-7-------------------|
G|------------------------------9-7-9~--9b--------|
D|------------------------------------------------|
A|------------------------------------------------|
E|------------------------------------------------|

        C                          D
 han georeumssik~        naege dagawa~~~~~~~~~~
e|------8~---------8-------------10~-------------------10.--|-> (Rhythm and
B|------8~------------8----------10~----------10----10-10.--|  Lead)
G|------9~---------------9-------11~-11-----11----11---11.--|  pause/break.
D|------10~-----------------10---12~---12-12----12-----12.--|
A|----------------------------------------------------------|
E|----------------------------------------------------------|

        G          Bm         Em           C
 gipeun mam gipeun sok gipeun neoui moksorireul
e|------3----------7----------7------------8------|
B|------3----------7----------8------------8------|-> from here to bottom
G|-----------------7----------9------------9------| all Lead strum pattern
D|------5----------9----------9------------10-----| varies.
A|------5----------9----------7------------10-----|
E|------3----------7-----------------------8------|

        G          Bm         Em           C
 gipeun mam gipeun sok gipeun neoui moksoriga
e|------3----------7----------7------------8------|
B|------3----------7----------8------------8------|
G|------4----------7----------9------------9------|
D|------5----------9----------9------------10-----|
A|------5----------9----------7------------10-----|
E|------3----------7-----------------------8------|

        G   Bm     Em  C                G   Bm     Em  C
   deullyeo ~ deullyeo ~           deullyeo ~ deullyeo ~
e|------3---7------7---8----------------3---7------7---8------|
B|------3---7------8---8----------------3---7------8---8------|
G|------4---7------9---9----------------4---7------9---9------|
D|------5---9------9---10---------------5---9------9---10-----|
A|------5---9------7---10---------------5---9------7---10-----|
E|------3---7----------8----------------3---7----------8------|

   G                      Bm        Em
e|------------------------------------------------|
B|-10s12-12-10-10-8-8-7-7-8-8-7-------------------|
G|------------------------------9-7-9~------------|
D|-------------------------------------7s9-7-9~---|
A|------------------------------------------------|
E|------------------------------------------------|

   G                      Bm        Em
e|------------------------------------------------|
B|-10s12-12-10-10-8-8-7-7-8-8-7-------------------|
G|------------------------------9-7-9~--9b--------|
D|------------------------------------------------|
A|------------------------------------------------|
E|------------------------------------------------|


    G              Bm        Em
     oraen       gieoge~~    neon~~               __
e|------------------------------------------------  |
B|-------9--9--------9--9-------9--9-------9--9---  |
G|--11-11-11----11-11-11---11-11-11---11-11-11----  |
D|------------------------------------------------  |
A|------------------------------------------------  |
E|------------------------------------------------  |
                                                    |
   G        Bm                 Em                   |---> (Lead)
    nal gidarineun     geotcheoreom~                |    Palm mute
e|------------------------------------------------  |    this part.
B|-------9---9-------9--9-------9--9-------9-9----  |
G|--11-11-11----11-11-11---11-11-11---11-11-11----  |
D|------------------------------------------------  |
A|------------------------------------------------  |
E|------------------------------------------------ _|

         C                        D
    soksagideut~         naege dagawa~
e|-------8~-------8-8-----------10~---10-10-10-10. ---| pause/break.
B|-------8~-----8--8-8----------10~---10-10-10-10-----|
G|-------9~-----9-----9---------11~---11-11-11-11-----|
D|-------10~----10--------------12~---12-12-12-12-----|
A|----------------------------------------------------|
E|----------------------------------------------------|

        G          Bm         Em           C                  __
 gipeun mam gipeun sok gipeun neoui moksorireul                 |
e|------3----------7----------7------------8------              |
B|------3----------7----------8------------8------              |
G|-----------------7----------9------------9------              |
D|------5----------9----------9------------10-----              |
A|------5----------9----------7------------10-----              |
E|------3----------7-----------------------8------              |
                                                                |
        G          Bm         Em           C                    |
 gipeun mam gipeun sok gipeun neoui moksoriga                   |
e|------3----------7----------7------------8------              |
B|------3----------7----------8------------8------              |_ Repeats
G|------4----------7----------9------------9------              |  Twice
D|------5----------9----------9------------10-----              |
A|------5----------9----------7------------10-----              |
E|------3----------7-----------------------8------              |
                                                                |
        G   Bm     Em  C                G   Bm     Em  C        |
   deullyeo ~ deullyeo ~           deullyeo ~ deullyeo ~        |
e|------3---7------7---8----------------3---7------7---8------  |
B|------3---7------8---8----------------3---7------8---8------  |
G|------4---7------9---9----------------4---7------9---9------  |
D|------5---9------9---10---------------5---9------9---10-----  |
A|------5---9------7---10---------------5---9------7---10-----  |
E|------3---7----------8----------------3---7----------8------ _|

   G                      Bm        Em
e|------------------------------------------------|
B|-10s12-12-10-10-8-8-7-7-8-8-7-------------------|
G|------------------------------9-7-9~------------|
D|-------------------------------------7s9-7-9~---|
A|------------------------------------------------|
E|------------------------------------------------|

   G                      Bm        Em
e|------------------------------------------------|
B|-10s12-12-10-10-8-8-7-7-8-8-7-------------------|
G|------------------------------9-7-9~------------|
D|------------------------------------------------|
A|------------------------------------------------|
E|------------------------------------------------|

END.

===== Acoustic Version ======================================

Intro

    G               Bm               Em
e|------------------------------------------------|
B|--10s12--10--8----------------------------------|
G|------------------9s11--9--7--9~----------------|
D|-----------------------------------7s9--7-9~ ---|
A|--12s14--12--10---7s9---7--5--7~----------------|
E|------------------------------------------------|

    G               Bm               Em
e|------------------------------------------------|
B|--10s12--10--8----------------------------------|
G|------------------9s11--9--7--9~---9s11--9~-----|
D|------------------------------------------------|
A|--12s14--12--10---7s9---7--5--7~---7s9---7~-----|
E|------------------------------------------------|

Verse

   G          Bm         Em
    oraen   gieoge~~     neon~~
e|------------------------------------------------|
B|---------------8------------8---------8---------|
G|----------------9----------9-------9---9--------|
D|-----------------9----------------9-9---9-------|
A|------------------------------------------------|
E|------------------------------------------------|

   G        Bm             Em
    nal gidarineun geotcheoreom~
e|------------------------------------------------|
B|-----------8----------------8---------8---------|
G|------------9--------------9-------9---9--------|
D|-------------9--------------------9-9---9-------|
A|------------------------------------------------|
E|------------------------------------------------|

         C                        D
    soksagideut~         naege dagawa~
e|-------8~---------8------------10~--------10----|
B|-------8~-----8----------------10~------10------|
G|-------9~-------9--------------11~----11--------|
D|-------10~---------------------12~--------------|
A|------------------------------------------------|
E|------------------------------------------------|

   G      Bm              Em
    geuriume      yeongwonhi~
e|------------------------------------------------|
B|--------8----------------8------------8---------|
G|---------9--------------9--------------9--------|
D|----------9------------9----------------9-------|
A|------------------------------------------------|
E|------------------------------------------------|

  G         Bm                   Em
   hollo namgyeojin~     geotcheoreom~
e|------------------------------------------------|
B|--------------8-------------------8-------8-----|
G|---------------9-----------------9-----9---9----|
D|----------------9---------------------9-9---9---|
A|------------------------------------------------|
E|------------------------------------------------|

        C                        D
 han georeumssik~        naege dagawa~
e|------8~----------8------------10~---10---------|
B|------8~--------8--8-----------10~-----10-------|
G|------9~---------9--9----------11~-------11-----|
D|------10~----------------------12~---------12---|
A|------------------------------------------------|
E|------------------------------------------------|

    G               Bm                 Em
e|------------------------------------------------|
B|--12--10--8-------------------------------------|
G|------------------11---9---7---9----------------|
D|-------------------------------------7-9--7--9~-|
A|--14--12--10-------9---7---5---7----------------|
E|------------------------------------------------|

    G               Bm                 Em
e|------------------------------------------------|
B|--12--10--8-------------------------------------|
G|------------------11---9---7---9-----9s11--9~---|
D|------------------------------------------------|
A|--14--12--10-------9---7---5---7----------------|
E|------------------------------------------------|

        C                          D
 han georeumssik~        naege dagawa~~~~~~~~~~
e|------8~---------8-------------10~-------------------10.--| ->
B|------8~------------8----------10~----------10----10-10.--|
G|------9~---------------9-------11~-11-----11----11---11.--| pause/break.
D|------10~-----------------10---12~---12-12----12-----12.--|
A|----------------------------------------------------------|
E|----------------------------------------------------------|

        G          Bm         Em           C
 gipeun mam gipeun sok gipeun neoui moksorireul


        G          Bm         Em           C
 gipeun mam gipeun sok gipeun neoui moksoriga


        G   Bm     Em  C            G   Bm     Em  C
 deullyeo ~ deullyeo ~       deullyeo ~ deullyeo ~

    G               Bm                 Em
e|------------------------------------------------|
B|--12-12-10--8-----------------------------------|
G|------------------11-11--9---7---9--------------|
D|-------------------------------------7s9--7--9~-|
A|--14-14-12--10-----9--9--7---5---7--------------|
E|------------------------------------------------|

    G               Bm                 Em
e|------------------------------------------------|
B|--12-12-10--8-----------------------------------|
G|------------------11-11--9---7---9---9s11--9~---|
D|------------------------------------------------|
A|--14-14-12--10-----9--9--7---5---7--------------|
E|------------------------------------------------|

   G          Bm         Em
    oraen   gieoge~~     neon~~
e|------------------------------------------------|
B|---------------8------------8---------8---------|
G|----------------9----------9-------9---9--------|
D|-----------------9----------------9-9---9-------|
A|------------------------------------------------|
E|------------------------------------------------|

   G        Bm             Em
    nal gidarineun geotcheoreom~
e|------------------------------------------------|
B|-----------8----------------8---------8---------|
G|------------9--------------9-------9---9--------|
D|-------------9--------------------9-9---9-------|
A|------------------------------------------------|
E|------------------------------------------------|

         C                        D
    soksagideut~         naege dagawa~
e|-------8~-------8-8-----------10~---10-10-10-10. ---| pause/break.
B|-------8~-----8--8-8----------10~---10-10-10-10-----|
G|-------9~-----9-----9---------11~---11-11-11-11-----|
D|-------10~----10--------------12~---12-12-12-12-----|
A|----------------------------------------------------|
E|----------------------------------------------------|

        G          Bm         Em           C
 gipeun mam gipeun sok gipeun neoui moksorireul


        G          Bm         Em           C
 gipeun mam gipeun sok gipeun neoui moksoriga


        G   Bm     Em  C                G   Bm     Em  C
   deullyeo ~ deullyeo ~           deullyeo ~ deullyeo ~

e|------------------------------------------------|
B|--12-12-10--8-----------------------------------|
G|------------------11-11--9---7---9--------------|
D|-------------------------------------7s9--7--9~-|
A|--14-14-12--10-----9--9--7---5---7--------------|
E|------------------------------------------------|

    G               Bm                 Em
e|------------------------------------------------|
B|--12-12-10--8-----------------------------------|
G|------------------11-11--9---7---9~-------------|
D|------------------------------------------------|
A|--14-14-12--10-----9--9--7---5---7~-------------|
E|------------------------------------------------|

END.

===== Finger Pick Version ========================================

Can be heard around episode 11 and 12.

Intro:

   G              D               C               C
|--------------|--------------|----------------|------------|
|------3----3--|------7----7--|------5------5--|--5.--------|
|------4----4--|------7----7--|------5------5--|--5.--------|
|--------------|--------------|----------------|------------|
|--------------|--5------5----|--3-------3-----|--3.--------|
|--3------3----|--------------|----------------|------------|

------------------------------------------------------------

Guitar 1 (lead)
|---------------------------------------------|
|--12-11--------------------------------------|
|--------14-12-11-12-11-9-7-9^------------12--|
|-------------------------------10p9-10-12----|
|---------------------------------------------|
|---------------------------------------------|

Guitar 2 (rhythm)
   G              D               C               C
|--------------|--------------|----------------|---------------|
|------3----3--|------7----7--|------5------5--|-----5------5--|
|------4----4--|------7----7--|------5------5--|-----5------5--|
|--------------|--------------|----------------|---------------|
|--------------|--5------5----|--3-------3-----|--3-----3------|
|--3------3----|--------------|----------------|---------------|

---------------------------------------------------------------

Guitar 1 (lead)
|--------------------------------------------|
|--12-11---------------------------9s3-------|
|--------14-12-11-12-11-9-8-7-9^---9s3-------|
|--------------------------------------------|
|--------------------------------------------|
|--------------------------------------------|

Guitar 2 (rhythm)
   G              D               C               C
|--------------|--------------|----------------|------------|
|------3----3--|------7----7--|------5------5--|--5.--------|
|------4----4--|------7----7--|------5------5--|--5.--------|
|--------------|--------------|----------------|------------|
|--------------|--5------5----|--3-------3-----|--3.--------|
|--3------3----|--------------|----------------|------------|

------------------------------------------------------------

Guitar 1 (lead)
|--------------------------------------------|
|--------------------------------------------|
|-----------7-----7------7-------------------|
|--9p8-9-10---8-9---9-10---8h9^----7---------|
|------------------------------------7-------|
|--------------------------------------------|

Guitar 2 (rhythm)
   G              D             Em               Em
|--------------|--------------|----------------|---------------|
|------3----3--|------7----7--|------8------8--|-----8------8--|
|------4----4--|------7----7--|------9------9--|-----9------9--|
|--------------|--------------|----------------|---------------|
|--------------|--5------5----|--7-------7-----|--7-----7------|
|--3------3----|--------------|----------------|---------------|

---------------------------------------------------------------

Guitar 1 (lead)
|------------------------------------------------------------|
|------------------------------------------------------------|
|-------------7--9-----------4-5-0h2p0--4s5-4-5-4------------|
|--9p7----8h9------8-9---7-9-----------------------7-7-5-7s1-|
|------10----------------------------------------------------|
|------------------------------------------------------------|

Guitar 2 (rhythm)
   G              D             Em               Em
|--------------|--------------|----------------|---------------|
|------3----3--|------7----7--|------8------8--|-----8------8--|
|------4----4--|------7----7--|------9------9--|-----9------9--|
|--------------|--------------|----------------|---------------|
|--------------|--5------5----|--7-------7-----|--7-----7------|
|--3------3----|--------------|----------------|---------------|

   C                 C                D                 D
|----------------|-----------------|--------------|------------|
|------5------5--|-------5------5--|------7----7--|-----7/-----|
|------5------5--|-------5------5--|------7----7--|-----7/-----|
|----------------|-----------------|--------------|------------|
|--3-------3-----|---3------3------|--5------5----|-----5/-----|
|----------------|-----------------|--------------|------------|

---------------------------------------------------------------
Guitar 1 (lead)
|--------------------------------|
|--12-11-------------------------|
|--------14-12-11-12-11-9-8-7-9^-|
|--------------------------------|
|--------------------------------|
|--------------------------------|

Guitar 2 (rhythm)
    G             D              C                     G
|--------------|--------------|----------------|-------0------|
|------3----3--|------7----7--|------5------5--|-------3------|
|------4----4--|------7----7--|------5------5--|-------0------|
|--------------|--------------|----------------|-------0------|
|--------------|--5------5----|--3-------3-----|-------2------|
|--3------3----|--------------|----------------|-------3------|

END.

==================================================================

http://cafe.daum.net/everylove

            
            
Suggest correction
Creating personal tab
Creating personal tab
You can edit any tab online and save it as your Personal.

You can edit, replace or remove any tab part or add personal notes – all changes will be seen only by you.

Personal tabs can be accessed anytime from any device, even offline.
Learn more »
Give kudos to tab author, rate the tab!
1 2 3 4 5
comments
print report bad tab
2 comments total.
0 reply
johanqin 10 Oct 04, 2013 01:11 PM

this is great! thank you for your hard work!

0 reply
arvinguinto 138 May 17, 2016 04:42 PM

Correction!
Changes second string 9 to 8.

soksagideut~

e|-------8~--------8-------|
B|-------8~------8---------|
G|-------9~-------9--------|
D|-------10~---------------|

guest
You may want to rate the tab now too:
select rating
Wanna post a correction for this tab? Suggest correction