Oops, an error
Loading. Please wait.

Awful Lot Tab

529 views 27 this week
no commentswrite comment
1 2 3 4 5
x 3
add to favorites
launch autoscroll
font size
0
reset
how to read this tab
guitar tuner
Autoscroll
slow
fast
+/-
esc
set tempo
stop
Help us to improve Ultimate-Guitar.com Take our survey!
×
Author
Difficulty
intermediate
Every Time I Die – Awful Lot

Album: Low Teens
Tuning: Aadgbe


[Intro]

E|----------------------------------------------------------------------|
B|----------------------------------------------------------------------|
G|-12----0--12-0--12-11----0--11-0--11-14----0--14-0--14-17----0--17-17-|
D|-11----11-11-11-11-11----11-11-11-11-14----14-14-14-14-17----17-17-17-|
A|----------------------------------------------------------------------|
A|----------------------------------------------------------------------|


E|----------------------------------------------------------------------|
B|----------------------------------------------------------------------|
G|-12----0--12-0--12-11----0--11-0--11-14----0--14-0--14-17-------------|
D|-11----11-11-11-11-11----11-11-11-11-14----14-14-14-14-17-------------|
A|----------------------------------------------------------------------|
A|-------------------------------------------------------------0---0----|


[Riff A]

E|-------------------------------------------------------|
B|-------------------------------------------------------|
G|-------------------------------------------------------|
D|-------------------------------------------------------|
A|-4----0-4-0-4-7----0-7-0-7-10------------10------------|
A|-4----0-4-0-4-7----0-7-0-7-10----0-0-0-0-10----0-0-0-0-|
                                   . . . .       . . . .

E|-------------------------------------------------------|
B|-------------------------------------------------------|
G|-------------------------------------------------------|
D|-------------------------------------------------------|
A|-4----0-4-0-4-7----0-7-0-7-10------------10------------|
A|-4----0-4-0-4-7----0-7-0-7-10----0-0---0-10----0-0---0-|
                                   . .   .       . .   .

E|-------------------------------------------------------|
B|-------------------------------------------------------|
G|-------------------------------------------------------|
D|-------------------------------------------------------|
A|-4----0-4-0-4-7----0-7-0-7-10------------10------------|
A|-4----0-4-0-4-7----0-7-0-7-10----0-0-0-0-10----0-0-0-0-|
                                   . . . .       . . . .

E|-----------------------------------------------------------------------------------|
B|-----------------------------------------------------------------------------------|
G|-----------------------------------------------------------------------------------|
D|-----------------------------------------------------------------------------------|
A|-4----0-4-0-4-7----0-7-0-7-10------------10------------10------------10------------|
A|-4----0-4-0-4-7----0-7-0-7-10----0-0---0-10----0-0---0-10----0-0---0-10----0-0---0-|
                                   . .   .       . .   .       . .   .       . .   .
 
[Verse]

E|-------------------------------------------|
B|-------------------------------------------|
G|-------------------------------------------|
D|-------------------------------------------|
A|-2----0-2-0-2-3----0-3-0-3-5-------5-------|
A|-2----0-2-0-2-3----0-3-0-3-5-0-0-0-5-0-0-0-|
        . . . .      . . . .

E|-------------------------------------------|
B|-------------------------------------------|
G|-------------------------------------------|
D|-------------------------------------------|
A|-2----0-2-0-2-3----0-3-0-3-5-------9-0-9-8-|
A|-2----0-2-0-2-3----0-3-0-3-5-0-0-0-9-0-9-8-|
        . . . .      . . . .

E|-------------------------------------------|
B|-------------------------------------------|
G|-------------------------------------------|
D|-------------------------------------------|
A|-2----0-2-0-2-3----0-3-0-3-5-------5-------|
A|-2----0-2-0-2-3----0-3-0-3-5-0-0-0-5-0-0-0-|
        . . . .      . . . .

E|-------------------------------------------|
B|-------------------------------------------|
G|-------------------------------------------|
D|-------------------------------------------|
A|-2----0-2-0-2-3----0-3-0-3-5-------9-0-9-8-|
A|-2----0-2-0-2-3----0-3-0-3-5-0-0-0-9-0-9-8-|
        . . . .      . . . .


[Chorus]

E|-------------------------------------------|
B|-------------------------------------------|
G|-------------------14b---------12----11----|
D|-------------------------------10----9-----|
A|----14\12---7/9----------------10----9-----|
A|-10-------9-----14-------20----------------|


E|---------------------------------|
B|---------------------------------|
G|---------------------------------|
D|---------------------------------|
A|---------------------------------|
A|-20b---0----0----20b---0----0----|


E|-------------------------------------------|
B|-------------------------------------------|
G|-------------------14b---------12----11----|
D|-------------------------------10----9-----|
A|----14\12---7/9----------------10----9-----|
A|-10-------9-----14-------20----------------|


[Riff B]

E|---------------------------------------------------------|
B|---------------------------------------------------------|
G|---------------------------------------------------------|
D|---------------------------------------------------------|
A|---------------------------------------------------------|
A|-20b---0-0-0-0-20b---0-0-0-15/20b---0-0-0-0-2----0-0-0-0-|
         . . . .       . . .          . . . .      . . . .

E|---------------------------------------------------------|
B|---------------------------------------------------------|
G|---------------------------------------------------------|
D|---------------------------------------------------------|
A|---------------------------------------------------------|
A|-20b---0-0-0-0-20b---0-0-0-15/20b---0-0-0-0-2----0-0-0-0-|
         . . . .       . . .          . . . .      . . . .

E|---------------------------------------------------------|
B|---------------------------------------------------------|
G|---------------------------------------------------------|
D|---------------------------------------------------------|
A|---------------------------------------------------------|
A|-20b---0-0-0-0-20b---0-0-0-15/20b---0-0-0-0-2----0-0-0-0-|
         . . . .       . . .          . . . .      . . . .

E|---------------------------------------------------------|
B|---------------------------------------------------------|
G|---------------------------------------------------------|
D|---------------------------------------------------------|
A|---------------------------------------------------------|
A|-20b---0-0-0-0-20b---0-0-0-15/20b---0-0-0-0-0------------|
         . . . .       . . .          . . . .

[Interlude]

E|----------------------------------------------------------------------|
B|----------------------------------------------------------------------|
G|-12----0--12-0--12-11----0--11-0--11-14----0--14-0--14-17----0--17-17-|
D|-11----11-11-11-11-11----11-11-11-11-14----14-14-14-14-17----17-17-17-|
A|----------------------------------------------------------------------|
A|----------------------------------------------------------------------|


E|----------------------------------------------------------------------|
B|----------------------------------------------------------------------|
G|-12----0--12-0--12-11----0--11-0--11-14----0--14-0--14-17----0--17-17-|
D|-11----11-11-11-11-11----11-11-11-11-14----14-14-14-14-17----17-17-17-|
A|----------------------------------------------------------------------|
A|----------------------------------------------------------------------|


E|----------------------------------------------------------------------|
B|----------------------------------------------------------------------|
G|-12----0--12-0--12-11----0--11-0--11-14----0--14-0--14-17----0--17-17-|
D|-11----11-11-11-11-11----11-11-11-11-14----14-14-14-14-17----17-17-17-|
A|----------------------------------------------------------------------|
A|----------------------------------------------------------------------|


E|----------------------------------------------------------------------|
B|----------------------------------------------------------------------|
G|-12----0--12-0--12-11----0--11-0--11-14----0--14-0--14-17----0--17-17-|
D|-11----11-11-11-11-11----11-11-11-11-14----14-14-14-14-17----17-17-17-|
A|----------------------------------------------------------------------|
A|----------------------------------------------------------------------|


[Breakdown]

E|---------------------------------------------------|
B|---------------------------------------------------|
G|---------------------------------------------------|
D|---------------------------------------------------|
A|-2----0-2-0-2-2----0-2-0-2-2----0-2-0-2-3--------0-|
A|-2----0-2-0-2-2----0-2-0-2-2----0-2-0-2-3----0-0-0-|
        . . . .      . . . .      . . . .      . . 

E|---------------------------------------------------|
B|---------------------------------------------------|
G|---------------------------------------------------|
D|---------------------------------------------------|
A|-2----0-2-0-2-2----0-2-0-2-2----0-2-0-2-3--------0-|
A|-2----0-2-0-2-2----0-2-0-2-2----0-2-0-2-3----0-0-0-|
        . . . .      . . . .      . . . .      . .

E|---------------------------------------------------|
B|---------------------------------------------------|
G|---------------------------------------------------|
D|---------------------------------------------------|
A|-2----0-2-0-2-2----0-2-0-2-2----0-2-0-2-3--------0-|
A|-2----0-2-0-2-2----0-2-0-2-2----0-2-0-2-3--------0-|
        . . . .      . . . .      . . . .       

E|---------------------------------------------------|
B|---------------------------------------------------|
G|---------------------------------------------------|
D|---------------------------------------------------|
A|-2----0-2-0-2-2----0-2-0-2-2----0-2-0-2-3--------0-|
A|-2----0-2-0-2-2----0-2-0-2-2----0-2-0-2-3----0-0-0-|
        . . . .      . . . .      . . . .      . .

E|-------------------------------------------|
B|-------------------------------------------|
G|-------------------------------------------|
D|-------------------------------------------|
A|-2----0-2-0-2-3----0-3-0-3-5-------5-------|
A|-2----0-2-0-2-3----0-3-0-3-5-0-0-0-5-0-0-0-|
        . . . .      . . . .

E|-------------------------------------------|
B|-------------------------------------------|
G|-------------------------------------------|
D|-------------------------------------------|
A|-2----0-2-0-2-3----0-3-0-3-5-------9-0-9-8-|
A|-2----0-2-0-2-3----0-3-0-3-5-0-0-0-9-0-9-8-|
        . . . .      . . . .


[Bridge] 

(One GTR):
E|-------------------------------------------------|
B|-------------------------------------------------|
G|-11-11-11-11-11-11-11-11-11-11-11-11-11-11-11-11-|
D|-9--9--9--9--9--9--9--9--9--9--9--9--9--9--9--9--|
A|-------------------------------------------------|
A|-------------------------------------------------|


E|-------------------------------------------------|
B|-------------------------------------------------|
G|-11-11-11-11-11-11-11-11-11-11-11-11-11-11-11-11-|
D|-9--9--9--9--9--9--9--9--9--9--9--9--9--9--9--9--|
A|-------------------------------------------------|
A|-------------------------------------------------|


E|-------------------------------------------------------------------------------------------|
B|-------------------------------------------------------------------------------------------|
G|-11-11-11-11-11-11-11-11-11-11-11-11-11/12\11----------------------------------------------|
D|-9--9--9--9--9--9--9--9--9--9--9--9--9-/10\9----12-12-12-12-12/13\12---9-9-9-9-10-10-10-10-|
A|----------------------------------------------0-10-10-10-10-10/11\10-0-7-7-7-7-8--8--8--8--|
A|-------------------------------------------------------------------------------------------|


[Riff C]

E|-------------------------------------------------------------------------------------------|
B|-------------------------------------------------------------------------------------------|
G|-11-11-11-11-11-11-11-11-11-11-11-11-11/12\11----------------------------------------------|
D|-9--9--9--9--9--9--9--9--9--9--9--9--9-/10\9----12-12-12-12-12/13\12---9-9-9-9-10-10-10-10-|
A|----------------------------------------------0-10-10-10-10-10/11\10-0-7-7-7-7-8--8--8--8--|
A|-------------------------------------------------------------------------------------------|


E|-------------------------------------------------------------------------------------------|
B|-------------------------------------------------------------------------------------------|
G|-11-11-11-11-11-11-11-11-11-11-11-11-11/12\11----------------------------------------------|
D|-9--9--9--9--9--9--9--9--9--9--9--9--9-/10\9----12-12-12-12-12/13\12---9-9-9-9-10-10-10-10-|
A|----------------------------------------------0-10-10-10-10-10/11\10-0-7-7-7-7-8--8--8--8--|
A|-------------------------------------------------------------------------------------------|


[Riff D]

E|----------------------------------------------------------------|
B|----------------------------------------------------------------|
G|----------------------------------------------------------------|
D|----------------------------------------------------------------|
A|-9-9-9-9-9-9-9-9-9-9-9-9-9/10\9---5-5-5-5/6\5---2-2-2-2-3-3-3-3-|
A|-9-9-9-9-9-9-9-9-9-9-9-9-9/10\9-0-5-5-5-5/6\5-0-2-2-2-2-3-3-3-3-|


E|----------------------------------------------------------------|
B|----------------------------------------------------------------|
G|----------------------------------------------------------------|
D|----------------------------------------------------------------|
A|-9-9-9-9-9-9-9-9-9-9-9-9-9/10\9---5-5-5-5/6\5---2-2-2-2-3-3-3-3-|
A|-9-9-9-9-9-9-9-9-9-9-9-9-9/10\9-0-5-5-5-5/6\5-0-2-2-2-2-3-3-3-3-|


E|----------------------------------------------------------------|
B|----------------------------------------------------------------|
G|----------------------------------------------------------------|
D|----------------------------------------------------------------|
A|-9-9-9-9-9-9-9-9-9-9-9-9-9/10\9---5-5-5-5/6\5---2-2-2-2-3-3-3-3-|
A|-9-9-9-9-9-9-9-9-9-9-9-9-9/10\9-0-5-5-5-5/6\5-0-2-2-2-2-3-3-3-3-|


E|----------------------------------------------------------------|
B|----------------------------------------------------------------|
G|----------------------------------------------------------------|
D|----------------------------------------------------------------|
A|-9-9-9-9-9-9-9-9-9-9-9-9-9/10\9---5-5-5-5/6\5---2---------------|
A|-9-9-9-9-9-9-9-9-9-9-9-9-9/10\9-0-5-5-5-5/6\5-0-2-------0-------|


[Riff B]

E|---------------------------------------------------------|
B|---------------------------------------------------------|
G|---------------------------------------------------------|
D|---------------------------------------------------------|
A|---------------------------------------------------------|
A|-20b---0-0-0-0-20b---0-0-0-15/20b---0-0-0-0-2----0-0-0-0-|
         . . . .       . . .          . . . .      . . . .

E|---------------------------------------------------------|
B|---------------------------------------------------------|
G|---------------------------------------------------------|
D|---------------------------------------------------------|
A|---------------------------------------------------------|
A|-20b---0-0-0-0-20b---0-0-0-15/20b---0-0-0-0-2----0-0-0-0-|
         . . . .       . . .          . . . .      . . . .

E|---------------------------------------------------------|
B|---------------------------------------------------------|
G|---------------------------------------------------------|
D|---------------------------------------------------------|
A|---------------------------------------------------------|
A|-20b---0-0-0-0-20b---0-0-0-15/20b---0-0-0-0-0------------|
         . . . .       . . .          . . . .       

E|---------------------------------------------------------|
B|---------------------------------------------------------|
G|---------------------------------------------------------|
D|------------------------------------------------noise----|
A|---------------------------------------------------------|
A|-20b---0-0-0-0-20b---0-0-0-15/20b---0-0-0-0-2------------|
         . . . .       . . .          . . . .

[Chorus]

E|-------------------------------------------|
B|-------------------------------------------|
G|-------------------14b---------12----11----|
D|-------------------------------10----9-----|
A|----14\12---7/9----------------10----9-----|
A|-10-------9-----14-------20----------------|


E|---------------------------------|
B|---------------------------------|
G|---------------------------------|
D|---------------------------------|
A|---------------------------------|
A|-20b---0----0----20b---0----0----|


E|-------------------------------------------|
B|-------------------------------------------|
G|-------------------14b---------12----11----|
D|-------------------------------10----9-----|
A|----14\12---7/9----------------10----9-----|
A|-10-------9-----14-------20----------------|


E|---------------------------------|
B|---------------------------------|
G|---------------------------------|
D|---------------------------------|
A|---------------------------------|
A|-20b---0----0----20b---0----0----|


[Piano Outro]

E|------------------------------------------------------------|
B|----12-10----------10-12r10---------------------------------|
G|------------9-11------------11-------11-----9---------------|
D|-----------------9----------------------9-----9-------------|
A|-10-------9-----------------------10------9-----9-12-7/9----|
A|------------------------------------------------------------|


E|------------------------------------------------------------|
B|----12-10----------10-12r10---------------------------------|
G|------------9-11------------11-------11-----9---------------|
D|-----------------9----------------------9-----9-------------|
A|-10-------9-----------------------10------9-----9-12-7/9----|
A|------------------------------------------------------------|



************************************

| b  Bend
| /  Slide up
| \  Slide down
| r  Release
| .  palm mute

************************************
Suggest correction
Give kudos to tab author, rate the tab!
1 2 3 4 5
comments
print report bad tab
guest
You may want to rate the tab now too:
select rating
Wanna post a correction for this tab? Suggest correction