Oops, an error
Loading. Please wait.

C Love Will Get You Killed Tab

version 1
version 1

Whole song

676 views 12 this week
no commentswrite comment
1 2 3 4 5
x 3
add to favorites
launch autoscroll
font size
0
reset
how to read this tab
guitar tuner
Autoscroll
slow
fast
+/-
esc
set tempo
stop
Help us to improve Ultimate-Guitar.com Take our survey!
×
Author
Difficulty
Tuning
intermediate
D A D G B E
Every Time I Die – C++ (Love Will Get You Killed)

Album: Low Teens
Tuning: Drop D


[Intro]

E|-0-|
B|-0-|
G|-0-|
D|-0-|
A|-0-|
D|-0-|


[Main Riff] (x4)

E|---0-----0------0---------0---|
B|---0-----0------0---------0---|
G|---0-----0------0---------0---|
D|-7-0-3-5-0-2----0-7-0-3-5-0-2-|
A|-7---3-5---2------7-0-3-5---2-|
D|-7---3-5---2------7-0-3-5---2-|


[Riff B] (x2)

E|------------------------0-----------------------------|
B|------------------------0-----------------------------|
G|------------------------0-----------------------------|
D|-2-2-2-2-2-2-2-2--------0-7-7-7-3-3-3-5-5-5-5-5-5-x-x-|
A|-2-2-2-2-2-2-2-2----------7-7-7-3-3-3-5-5-5-5-5-5-x-x-|
D|-2-2-2-2-2-2-2-2-6/15\0---7-7-7-3-3-3-5-5-5-5-5-5-x-x-|


[Main Riff] (x4)

E|---0-----0------0---------0---|
B|---0-----0------0---------0---|
G|---0-----0------0---------0---|
D|-7-0-3-5-0-2----0-7-0-3-5-0-2-|
A|-7---3-5---2------7-0-3-5---2-|
D|-7---3-5---2------7-0-3-5---2-|


[Riff B] (x2)

E|------------------------0-----------------------------|
B|------------------------0-----------------------------|
G|------------------------0-----------------------------|
D|-2-2-2-2-2-2-2-2--------0-7-7-7-3-3-3-5-5-5-5-5-5-x-x-|
A|-2-2-2-2-2-2-2-2----------7-7-7-3-3-3-5-5-5-5-5-5-x-x-|
D|-2-2-2-2-2-2-2-2-6/15\0---7-7-7-3-3-3-5-5-5-5-5-5-x-x-|


[Main Riff Variation] (x3)

E|--------------|
B|--------------|
G|--------------|
D|-7----3-5---2-|
A|-7----3-5-0-2-|
D|-7----3-5-0-2-|


[Main Riff Variation 2]

E|-0---------0-------|
B|-0---------0-------|
G|-0---------0-------|
D|-0-7-0-3-5-0-2-3-2-|
A|---7-0-3-5---2-3-2-|
D|---7-0-3-5---2-3-2-|


[Main Riff Variation] (x3)

E|--------------|
B|--------------|
G|--------------|
D|-7----3-5---2-|
A|-7----3-5-0-2-|
D|-7----3-5-0-2-|


[Main Riff Variation 3]

E|-0---------0-------|
B|-0---------0-------|
G|-0---------0-------|
D|-0-7-0-3-5-0-2-----|
A|---7-0-3-5---2-----|
D|---7-0-3-5---2-----|


[Riff C] (x2)

E|---------------------------------------|
B|---------------------------------------|
G|---------------------------------------|
D|-3-2-0-------0-3-2-0-------------------|
A|-3-2-0-------0-3-2-0-14-14-14-14-14-14-|
D|-3-2-0-15-14-0-3-2-0-14-14-14-14-14-14-|


[Interlude]

E|-----------------------------------------------|
B|-----------------------------------------------|
G|-----------------------------------------------|
D|-----------------------------------------------|
A|-14-14-14-14-14-14-14-14-14-14-14-14-14-14-14--|
D|-14-14-14-14-14-14-14-14-14-14-14-14-14-14-14\-|


[Chorus Riff] (x4)

E|-------------------------------------------------------------|
B|-------------------------------------------------------------|
G|---------------------------------9-9----5-5----7-7-7-7-7-----|
D|-2-2-2-2-2-2-2-2-2-2-2-2-2-2-2-2-7-7----3-3----5-5-5-5-5-x-x-|
A|-2-2-2-2-2-2-2-2-2-2-2-2-2-2-2-2-7-7----3-3----5-5-5-5-5-x-x-|
D|-2-2-2-2-2-2-2-2-2-2-2-2-2-2-2-2-7-7----3-3----5-5-5-5-5-x-x-|


[Riff C] (x2)

E|---------------------------------------|
B|---------------------------------------|
G|---------------------------------------|
D|-3-2-0-------0-3-2-0-------------------|
A|-3-2-0-------0-3-2-0-14-14-14-14-14-14-|
D|-3-2-0-15-14-0-3-2-0-14-14-14-14-14-14-|


[Interlude]

E|-----------------------------------------------|
B|-----------------------------------------------|
G|-----------------------------------------------|
D|-----------------------------------------------|
A|-14-14-14-14-14-14-14-14-14-14-14-14-14-14-14--|
D|-14-14-14-14-14-14-14-14-14-14-14-14-14-14-14\-|


[Riff D]

E|----------0----------0-|
B|----------0----------0-|
G|----------0----------0-|
D|-2----0-2-0-2----0-2-0-|
A|-2----0-2---2----0-2---|
D|-2----0-2---2----0-2---|


[Riff D Out 1]

E|-------------|
B|-------------|
G|-------------|
D|-0-0-0-0-0-0-|
A|-0-0-0-0-0-0-|
D|-0-0-0-0-0-0-|
   . . . . . .


[Riff D]

E|----------0----------0-|
B|----------0----------0-|
G|----------0----------0-|
D|-2----0-2-0-2----0-2-0-|
A|-2----0-2---2----0-2---|
D|-2----0-2---2----0-2---|


[Riff D Out 2]

E|----------|
B|----------|
G|----------|
D|-0-0----0-|
A|-0-0----0-|
D|-0-0----0-|
   . .    .


[Riff D]

E|----------0----------0-|
B|----------0----------0-|
G|----------0----------0-|
D|-2----0-2-0-2----0-2-0-|
A|-2----0-2---2----0-2---|
D|-2----0-2---2----0-2---|


[Riff D Out 1]

E|-------------|
B|-------------|
G|-------------|
D|-0-0-0-0-0-0-|
A|-0-0-0-0-0-0-|
D|-0-0-0-0-0-0-|
   . . . . . .


[Riff D]

E|----------0----------0-|
B|----------0----------0-|
G|----------0----------0-|
D|-2----0-2-0-2----0-2-0-|
A|-2----0-2---2----0-2---|
D|-2----0-2---2----0-2---|


[Riff D Out 2]

E|----------|
B|----------|
G|----------|
D|-0-0----0-|
A|-0-0----0-|
D|-0-0----0-|
   . .    .


[Riff D]

E|----------0----------0-|
B|----------0----------0-|
G|----------0----------0-|
D|-2----0-2-0-2----0-2-0-|
A|-2----0-2---2----0-2---|
D|-2----0-2---2----0-2---|


[Riff D Out 3]

E|-------------------------|
B|-------------------------|
G|-------------------------|
D|-------------------------|
A|-5p3r0-3r0---------3-----|
D|----------h5-0h3h5---5p3-|


[Riff D]

E|----------0----------0-|
B|----------0----------0-|
G|----------0----------0-|
D|-2----0-2-0-2----0-2-0-|
A|-2----0-2---2----0-2---|
D|-2----0-2---2----0-2---|


[Riff D Out 2]

E|----------|
B|----------|
G|----------|
D|-0-0----0-|
A|-0-0----0-|
D|-0-0----0-|


[Riff D]

E|----------0----------0-|
B|----------0----------0-|
G|----------0----------0-|
D|-2----0-2-0-2----0-2-0-|
A|-2----0-2---2----0-2---|
D|-2----0-2---2----0-2---|


[Riff D Out 4]

E|-------------------------------------|
B|-------------------------------------|
G|-------------------------------------|
D|-0-2----2-10-------------------------|
A|-0-2----2-8--5p3r0-3r0---------3-----|
D|-0-2----2-------------h5-0h3h5---5p3-|


[Riff D Variation] (x4)

E|----------0------------|
B|----------0------------|
G|----------0------------|
D|-2----0-2-0-2----0-2-0-|
A|-2----0-2---2----0-2-0-|
D|-2----0-2---2----0-2-0-|


[Riff D Variation Out]

E|------------------------------------|
B|------------------------------------|
G|------------------------------------|
D|-0-2----2----10----2-10-10-10-10-10-|
A|-0-2----2----8-----2-8--8--8--8--8--|
D|-0-2----2----------2----------------|


[Main Riff Variation] (x3)

E|--------------|
B|--------------|
G|--------------|
D|-7----3-5---2-|
A|-7----3-5-0-2-|
D|-7----3-5-0-2-|


[Main Riff Variation 2]

E|-0---------0-------|
B|-0---------0-------|
G|-0---------0-------|
D|-0-7-0-3-5-0-2-3-2-|
A|---7-0-3-5---2-3-2-|
D|---7-0-3-5---2-3-2-|


[Main Riff Variation] (x3)

E|--------------|
B|--------------|
G|--------------|
D|-7----3-5---2-|
A|-7----3-5-0-2-|
D|-7----3-5-0-2-|


[Main Riff Variation 3]

E|-0---------0-------|
B|-0---------0-------|
G|-0---------0-------|
D|-0-7-0-3-5-0-2-----|
A|---7-0-3-5---2-----|
D|---7-0-3-5---2-----|


[Outro]

E|-----------------------|
B|-----------------------|
G|-----------------------|
D|-3-2-0-------0-3-2-2-2-|
A|-3-2-0-------0-3-2-2-2-|
D|-3-2-0-15-14-0-3-2-2-2-|


************************************

| x  Dead note
| h  Hammer-on
| p  Pull-off
| r  Release
| /  Slide up
| \  Slide down

************************************
Suggest correction
Give kudos to tab author, rate the tab!
1 2 3 4 5
comments
print report bad tab
guest
You may want to rate the tab now too:
select rating
Wanna post a correction for this tab? Suggest correction