Oops, an error
Loading. Please wait.

C Love Will Get You Killed Tab

version 2
version 2

Whole song

79 views 1 this week
no commentswrite comment
1 2 3 4 5
1 last vote to show rating
add to favorites
launch autoscroll
font size
0
reset
how to read this tab
guitar tuner
Autoscroll
slow
fast
+/-
esc
set tempo
stop
Help us to improve Ultimate-Guitar.com Take our survey!
×
Author
Difficulty
Tuning
intermediate
D A D G B E
----------------------------------------------------
  C++ (Love Will Get You Killed – Every Time I Die
----------------------------------------------------
Tabbed by: millarso (Jake Miller)
E-mail: millarso2.0@gmail.com

Tuning: Drop D

Guitar 1: Left Stereo
Guitar 2: Right Stereo


[INTRO]
Both Guitars
E|-0-------------|
B|-0-------------|
G|-0-------------|
D|-0-------------|
A|---------------|
D|---(bass-riff)-|

NOTE: Guitar 2 cuts out intermittently in INTRO, as when using a
killswitch or switching between pickups

[SECTION 1]
Both Guitars
E|----0-----0-----0---------0---------0-----0-----0---------0---|
B|----0-----0-----0---------0---------0-----0-----0---------0---|
G|----0-----0-----0---------0---------0-----0-----0---------0---|
D|-7----3-5---2-----7-0-3-5---2---7-7---3-5---2-----7-0-3-5---2-|x2
A|-7----3-5---2-----7-0-3-5---2---7-7---3-5---2-----7-0-3-5---2-|
D|-7----3-5---2-----7-0-3-5---2---7-7---3-5---2-----7-0-3-5---2-|

[SECTION 2]
Both Guitars
E|-----------------------------0--------------------------------|
B|-----------------------------0--------------------------------|
G|-----------------------------0--------------------------------|
D|-2-2-2-2-2-2-2-2-2-2-2-2-2/-----7-7-7-3-3-3-5-5-5-5-5-5-x-x-x-|
A|-2-2-2-2-2-2-2-2-2-2-2-2-2/-----7-7-7-3-3-3-5-5-5-5-5-5-x-x-x-|
D|-2-2-2-2-2-2-2-2-2-2-2-2-2/-----7-7-7-3-3-3-5-5-5-5-5-5-x-x-x-|

E|------------------------------0----------------------------------|
B|------------------------------0----------------------------------|
G|------------------------------0----------------------------------|
D|-2--2-2-2-2-2-2-2-2-2-2/14\2-----7-7-7-3-3-3-5-5-5-5-5-5-x-x-x-x-|
A|-2--2-2-2-2-2-2-2-2-2-2/14\2-----7-7-7-3-3-3-5-5-5-5-5-5-x-x-x-x-|
D|-2--2-2-2-2-2-2-2-2-2-2/14\2-----7-7-7-3-3-3-5-5-5-5-5-5-x-x-x-x-|

[SECTION 1]
Both Guitars
E|----0-----0-----0---------0---------0-----0-----0---------0---|
B|----0-----0-----0---------0---------0-----0-----0---------0---|
G|----0-----0-----0---------0---------0-----0-----0---------0---|
D|-7----3-5---2-----7-0-3-5---2---7-7---3-5---2-----7-0-3-5---2-|x2
A|-7----3-5---2-----7-0-3-5---2---7-7---3-5---2-----7-0-3-5---2-|
D|-7----3-5---2-----7-0-3-5---2---7-7---3-5---2-----7-0-3-5---2-|

[SECTION 2]
Both Guitars
E|-----------------------------0--------------------------------|
B|-----------------------------0--------------------------------|
G|-----------------------------0--------------------------------|
D|-2-2-2-2-2-2-2-2-2-2-2-2-2/-----7-7-7-3-3-3-5-5-5-5-5-5-x-x-x-|
A|-2-2-2-2-2-2-2-2-2-2-2-2-2/-----7-7-7-3-3-3-5-5-5-5-5-5-x-x-x-|
D|-2-2-2-2-2-2-2-2-2-2-2-2-2/-----7-7-7-3-3-3-5-5-5-5-5-5-x-x-x-|

E|------------------------------0----------------------------------|
B|------------------------------0----------------------------------|
G|------------------------------0----------------------------------|
D|-2--2-2-2-2-2-2-2-2-2-2/14\2-----7-7-7-3-3-3-5-5-5-5-5-5-x-x-x-x-|
A|-2--2-2-2-2-2-2-2-2-2-2/14\2-----7-7-7-3-3-3-5-5-5-5-5-5-x-x-x-x-|
D|-2--2-2-2-2-2-2-2-2-2-2/14\2-----7-7-7-3-3-3-5-5-5-5-5-5-x-x-x-x-|

[SECTION 3]
Both Guitars
E|----------------------------------------------0--------------------|
B|----------------------------------------------0--------------------|
G|----------------------------------------------0--------------------|
D|-7-7-0-3-5-0-2---7--0-3-5-0-2/--7--0-3-5-0-2----7-0-3-5-0-2--3--2/-|
A|-7-7-0-3-5-0-2---7--0-3-5-0-2/--7--0-3-5-0-2----7-0-3-5-0-2--3--2/-|
D|-7-7-0-3-5-0-2---7--0-3-5-0-2/--7--0-3-5-0-2----7-0-3-5-0-2--3--2/-|

E|---------------------------------------------0--------------------|
B|---------------------------------------------0--------------------|
G|---------------------------------------------0--------------------|
D|-7--0-3-5-0-2---7--0-3-5-0-2---7--0-3-5-0-2----7-0-3-5-0-2--3--2/-|
A|-7--0-3-5-0-2---7--0-3-5-0-2---7--0-3-5-0-2----7-0-3-5-0-2--3--2/-|
D|-7--0-3-5-0-2---7--0-3-5-0-2---7--0-3-5-0-2----7-0-3-5-0-2--3--2/-|

[SECTION 4]
Both Guitars
E|----------------------------------------------|
B|----------------------------------------------|
G|----------------------------------------------|
D|-3--2--0--------0--3--2--0--14-14-14-14-14-14-|x2
A|-3--2--0--/8-7~-0--3--2--0--14-14-14-14-14-14-|
D|-3--2--0--------0--3--2--0--14-14-14-14-14-14-|  

E|-----------------------------------------|
B|-----------------------------------------|
G|-----------------------------------------|
D|-14-14-14-14-14-14-14-14-14-14-14-14-14\-|
A|-14-14-14-14-14-14-14-14-14-14-14-14-14\-|
D|-14-14-14-14-14-14-14-14-14-14-14-14-14\-|

[SECTION 5]
Both Guitars (Guitar 2 plays just the bottom 3 strings)
E|----------------------------------------------------------------|
B|---------------------------------101010-6-6-6-8-8-8-8-8-8-8-x-x-|
G|----------------------------------9-9-9-5-5-5-7-7-7-7-7-7-7-x-x-|
D|-2--2-2-2-2-2-2-2-2-2-2-2-2-2-2-2/7-7-7-3-3-3-5-5-5-5-5-5-5-x-x-|
A|-2--2-2-2-2-2-2-2-2-2-2-2-2-2-2-2/7-7-7-3-3-3-5-5-5-5-5-5-5-x-x-|
D|-2--2-2-2-2-2-2-2-2-2-2-2-2-2-2-2/7-7-7-3-3-3-5-5-5-5-5-5-5-x-x-|

Both Guitars
E|----------------------------------------------------------------|
B|---------------------------------101010-6-6-6-8-8-8-8-8-8-x-x-x-|
G|----------------------------------9-9-9-5-5-5-7-7-7-7-7-7-x-x-x-|
D|-2--2-2-2-2-2-2-2-2-2-2-2-2-2-2-2/7-7-7-3-3-3-5-5-5-5-5-5-x-x-x-|
A|-2--2-2-2-2-2-2-2-2-2-2-2-2-2-2-2/7-7-7-3-3-3-5-5-5-5-5-5-x-x-x-|
D|-2--2-2-2-2-2-2-2-2-2-2-2-2-2-2-2/7-7-7-3-3-3-5-5-5-5-5-5-x-x-x-|
||
Solo Guitar
E|----------------------------------------------------------------|
B|----13-13--15---13---15---13------------------------------------|
G|-----x--x--12----x---12----x------------------------------------|
D|----10-10-------10--------10------------------------------------|
A|----------------------------------------------------------------|
D|----------------------------------------------------------------|

Both Guitars
E|----------------------------------------------------------------|
B|---------------------------------101010-6-6-6-8-8-8-8-8-8-8-x-x-|
G|----------------------------------9-9-9-5-5-5-7-7-7-7-7-7-7-x-x-|
D|-2--2-2-2-2-2-2-2-2-2-2-2-2-2-2-2/7-7-7-3-3-3-5-5-5-5-5-5-5-x-x-|
A|-2--2-2-2-2-2-2-2-2-2-2-2-2-2-2-2/7-7-7-3-3-3-5-5-5-5-5-5-5-x-x-|
D|-2--2-2-2-2-2-2-2-2-2-2-2-2-2-2-2/7-7-7-3-3-3-5-5-5-5-5-5-5-x-x-|
||
Solo Guitar
E|----------------------------------------------------------------|
B|----------------------------------------------------------------|
G|----12-12/14-14/16-16/17-17/19-19/21-21-------------------------|
D|-----x--x-----x-----x-----x-----x-----x-------------------------|
A|----10-10/12-12/14-14/15-15/17-17/19-19-------------------------|
D|----------------------------------------------------------------|

Both Guitars
E|------------------------------------------------------------------|
B|---------------------------------101010-6-6-6-8-8-8-8-8-8-x-x-x-x-|
G|----------------------------------9-9-9-5-5-5-7-7-7-7-7-7-x-x-x-x-|
D|-2--2-2-2-2-2-2-2-2-2-2-2-2-2-2-2/7-7-7-3-3-3-5-5-5-5-5-5-x-x-x-x-|
A|-2--2-2-2-2-2-2-2-2-2-2-2-2-2-2-2/7-7-7-3-3-3-5-5-5-5-5-5-x-x-x-x-|
D|-2--2-2-2-2-2-2-2-2-2-2-2-2-2-2-2/7-7-7-3-3-3-5-5-5-5-5-5-x-x-x-x-|
||
Solo Guitar
E|-15----15-15-15-15-15-15-15-15----------------------------------|
B|-18b20-20-20-20-20-20-20-20-20-20r18p16-------------------------|
G|---------------------------------------17-17-15s17-pb20--r17~---|
D|----------------------------------------------------------------|
A|----------------------------------------------------------------|
D|----------------------------------------------------------------|

[SECTION 4]
Both Guitars
E|----------------------------------------------|
B|----------------------------------------------|
G|----------------------------------------------|
D|-3--2--0--------0--3--2--0--14-14-14-14-14-14-|x2
A|-3--2--0--/8-7~-0--3--2--0--14-14-14-14-14-14-|
D|-3--2--0--------0--3--2--0--14-14-14-14-14-14-|  

E|-----------------------------------------|
B|-----------------------------------------|
G|-----------------------------------------|
D|-14-14-14-14-14-14-14-14-14-14-14-14-14\-|
A|-14-14-14-14-14-14-14-14-14-14-14-14-14\-|
D|-14-14-14-14-14-14-14-14-14-14-14-14-14\-|

[TRANSITION]
Guitar 1
E|------------------------------------------------------|
B|------------------------------------------------------|
G|------------------------------------------------------|
D|------------------------------------------------------|
A|---------------------000000--------------------0-0--0-|
D|---------------------000000--------------------0-0--0-|
||                     ......                    . .  .
Guitar 2
E|--------0---------0---------------0---------0---------|
B|--------0---------0---------------0---------0---------|
G|--------0---------0---------------0---------0---------|
D|-2--0-2----2--0-2----------2--0-2----2--0-2-----------|
A|-2--0-2----2--0-2----0000002--0-2----2--0-2----0-0--0-|
D|-2--0-2----2--0-2----0000002--0-2----2--0-2----0-0--0-|
                       ......                    . .  .

[SECTION 6]
Both Guitars
E|--------0---------0---------------0---------0---------|
B|--------0---------0---------------0---------0---------|
G|--------0---------0---------------0---------0---------|
D|-2--0-2----2--0-2----xxxxxx2--0-2----2--0-2----0-0--0-|
A|-2--0-2----2--0-2----xxxxxx2--0-2----2--0-2----0-0--0-|
D|-2--0-2----2--0-2----xxxxxx2--0-2----2--0-2----0-0--0-|
                                                 . .  .

E|--------0---------0--------------------------|
B|--------0---------0--------------------------|
G|--------0---------0--------------------------|
D|-2--0-2----2--0-2----------------------------|
A|-2--0-2----2--0-2----5-3-0-3-0---------3-----|
D|-2--0-2----2--0-2--------------3-0-3-5---5-0-|

E|--------0---------0----------------0---------0------------------------------------|
B|--------0---------0----------------0---------0---------6--------------------------|
G|--------0---------0----------------0---------0---------5--------------------------|
D|-2--0-2----2--0-2----0-0--0-2--0-2----2--0-2------2--2-3--------------------------|
A|-2--0-2----2--0-2----0-0--0-2--0-2----2--0-2----0-2--2----5-3-0-3-0---------3-----|
D|-2--0-2----2--0-2----0-0--0-2--0-2----2--0-2----0-2--2--------------3-0-3-5---5-0-|
                       . .  .                     .

E|--------0---------------------0---------------------0---------0-|
B|--------0---------------------0---------------------0---------0-|
G|--------0---------------------0---------------------0---------0-|
D|-2--0-2----2--0-2-0----2--0-2----2--0-2-0----2--0-2----2--0-2-0-|
A|-2--0-2----2--0-2-0----2--0-2----2--0-2-0----2--0-2----2--0-2-0-|
D|-2--0-2----2--0-2-0----2--0-2----2--0-2-0----2--0-2----2--0-2-0-|
                                                 . .  .

E|--------0-----------------------------------|
B|--------0--------------------6------66666-6-|
G|--------0--------------------5------55555-5-|
D|-2--0-2----2--0-2-0----2--2--3--2-2-33333-3-|
A|-2--0-2----2--0-2-0--0-2--2-----2-2---------|
D|-2--0-2----2--0-2-0--0-2--2-----2-2---------|

[SECTION 7]
Both Guitars
E|---------------------------------------------0-------------------|
B|---------------------------------------------0-------------------|
G|---------------------------------------------0-------------------|
D|-7--0-3-5-0-2---7--0-3-5-0-2---7--0-3-5-0-2----7-0-3-5-0-2--3--2-|
A|-7--0-3-5-0-2---7--0-3-5-0-2---7--0-3-5-0-2----7-0-3-5-0-2--3--2-|
D|-7--0-3-5-0-2---7--0-3-5-0-2---7--0-3-5-0-2----7-0-3-5-0-2--3--2-|
||
Solo Guitar
E|------------------------------------------------|
B|-15b17--r15p13-15p13-13----15b17r15-13-15p13-13-|
G|------------------------------------------------|
D|------------------------------------------------|x2
A|------------------------------------------------|
D|------------------------------------------------|

Both Guitars
E|---------------------------------------------0-------------|
B|---------------------------------------------0-------------|
G|---------------------------------------------0-------------|
D|-7--0-3-5-0-2---7--0-3-5-0-2---7--0-3-5-0-2----7-0-3-5-0-2-|
A|-7--0-3-5-0-2---7--0-3-5-0-2---7--0-3-5-0-2----7-0-3-5-0-2-|
D|-7--0-3-5-0-2---7--0-3-5-0-2---7--0-3-5-0-2----7-0-3-5-0-2-|
||
Solo Guitar
E|------------------------------------------------|
B|-15b17--r15p13-15p13-13----15b17r15-13-15p13-13-|
G|------------------------------------------------|
D|------------------------------------------------|x2
A|------------------------------------------------|
D|------------------------------------------------|

Both Guitars
E|------------------------------|
B|------------------------------|
G|------------------------------|
D|-3--2--0--------0--3--2--2--2-|
A|-3--2--0--/8-7~-0--3--2--2--2-|
D|-3--2--0--------0--3--2--2--2-|

END

Please rate & comment. Let me know if you see anything that needs a tweak.

************************************
| .   palm mute (below bar)
| /   slide up
| \   slide down
| h   hammer-on
| p   pull-off
| ~   vibrato
| b   Bend
| pb  Pre-bend
| r   Return from bend
| x   Mute note

************************************
Suggest correction
Give kudos to tab author, rate the tab!
1 2 3 4 5
comments
print report bad tab
guest
You may want to rate the tab now too:
select rating
Wanna post a correction for this tab? Suggest correction