Oops, an error
Loading. Please wait.

Decayin With The Boys tab

11,166 views 45 this week
6 commentsread comments
1 2 3 4 5
x 8
add to favorites
×
Save as Personal and add changes to this tab that will be seen only by you. Learn more ›
×
You can save this tab as Personal to edit and correct it or add notes. All changes will be seen only by you. Learn more »
launch autoscroll
font size
0
reset
how to read this tab
guitar tuner
edit
Autoscroll
slow
fast
+/-
esc
set tempo
stop
---------------------------------------------
  Decayin' With The Boys - Every Time I Die
---------------------------------------------
Tabbed By: millarso (Jake Miller)
E-mail: millarso2.0@gmail.com

Tuning: Drop D

Guitar 1: Left Stereo
Guitar 2: Right Stereo

[Section 1]

Both Guitars
E|-----------------------------------------------------------------|
B|-----------------------------------------------------------------|
G|-----------------------------------------------------------------|
D|-----------------------------------------------------------------|
A|---------------------------3-------------------------------------|
D|-3-0-0-0-3-0-0-0-3-3-0-3-6---5-0-3-0-0-0-3-0-0-0-0-0-0-0-0-6-5-1-|

E|---------------------------------------------------------------------|
B|---------------------------------------------------------------------|
G|---------------------------------------------------------------------|
D|-------------------------------------------------10-10-10-7-10-7-7-7-|
A|---------------------------3---------------------10-10-10-7-10-7-7-7-|
D|-3-0-0-0-3-0-0-0-3-3-0-3-6---5-0-3-0-0-0-3-0-0-0-10-10-10-7-10-7-7-7-|

REPEAT SECTION 1


[Section 2]

Both Guitars
E|-------------------------------------------------------------------|
B|-------------------------------------------------------------------|
G|-------------------------------------------------------------------|
D|-------------------------------------------------------------------|
A|---------------------------3----------------(Gtr-1-only)-----------|
D|-3-0-0-0-3-0-0-0-3-3-0-3-6---5-0-3-0-0-0-(3-0-0-0-0-0-0-0-0)-6-5-1-|

E|-------------------------------------------------|
B|-------------------------------------------------|
G|-------------------------------------------------|
D|-------------------------------------------------|
A|---------------------------3---------------------|
D|-3-0-0-0-3-0-0-0-3-3-0-3-6---5-0-3-0-0-0-3-0-0-0-|

E|-------------------------------------------------------------------------------|
B|-------------------------------------------------------------------------------|
G|-------------------------------------------------------------------------------|
D|-10-10-10-7-10-7-7-7-10-10-10-7-10-7---10-10-10-7-10-7-7-7-10-10-10-7-10-7-----|
A|-10-10-10-7-10-7-7-7-10-10-10-7-10-7---10-10-10-7-10-7-7-7-10-10-10-7-10-7-----|
D|-10-10-10-7-10-7-7-7-10-10-10-7-10-7---10-10-10-7-10-7-7-7-10-10-10-7-10-7-0-1-|


[Section 3]

Both Guitars
E|----------------------------------------------------------------|
B|----------------------------------------------------------------|
G|----------------------------------------------------------------|
D|------------------------------------------------------x-x-x-x-x-|
A|------------------------------------------------------x-x-x-x-x-|
D|-3-3-3-3-3-0-0-0-3-3-3-3-3-0----3-3-3-3-3-0-0-0-3-3-3-x-x-x-x-x-|

E|-----------------------------------------------------------------|
B|-----------------------------------------------------------------|
G|-----------------------------------------------------------------|
D|-------------------------x-x-x-x---------------------x-x-x-------|
A|-------------------------x-x-x-x---------------------x-x-x-------|
D|-3-3-3-3-3-0-0-0-3-3-3-3-x-x-x-x-3-3-3-3-3-0-0-0-3-3-x-x-x-6-1-3-|

[Transition]

Guitar 1
E|-------------------------------------------------------------|
B|-------------------------------------------------------------|
G|-------------------------------------------------------------|
D|-------------------------------------------------------------|
A|-------------------------------------------------------------|
D|-0-0-0-0-0-0-0-0-0-0-0-0-0-0---------------------------------|
||
Guitar 2
E|-------------------------------------------------------------|
B|-------------------------------------------------------------|
G|-------------------------------------------------------------|
D|-------------------------------------------------------------|
A|-------------------------------------------------------------|
D|-------------------------------0-0-0-0-0-0-0-0-0-0-0-0-0-0---|


[Section 4]
Both Guitars
E|---------------------------------------------------------------|
B|---------------------------------------------------------------|
G|---------------------------------------------------------------|
D|---------------------------------------------------------------|
A|---------------------------------------------------------------|
D|-0-0-0-0-0-0-0-0-0-0-0-0-0-0---0-0-0-0-0-0-0-0-0-0-0-0-0-6-5-1-|(x3)

[Section 5]

Guitar 1
E|---------------------------------|
B|---------------------------------|
G|---------------------------------|
D|---------------------------------|
A|-----9-9-6-6-----------------0-0-|(let off mutes on 4th repeat)
D|-5-5---------8-8-5-5-8-8-3-3-----|(x4)
|| . . . . . . . . . . . . . . . .
||
Guitar 2 (slide guitar)

E|-/12~----\--/15~----\--/19~----\-----/(slide-above-frets)\-|
B|-/12~----\--/15~----\--/19~----\---------------------------|
G|-----------------------------------------------------------|
D|-----------------------------------------------------------|
A|-----------------------------------------------------------|
D|-----------------------------------------------------------|

[Section 6]
Both Guitars
E|-------------------------------------------------|
B|-------------------------------------------------|
G|-------------------------------------------------|
D|-16-13-13-13-16-13-13-13-16-16-13-16-------------|
A|-16-13-13-13-16-13-13-13-16-16-13-16-12-13-12----|
D|-16-13-13-13-16-13-13-13-16-16-13-16----------13-|

E|-------------------------------------------------|
B|-------------------------------------------------|
G|-------------------------------------------------|
D|-16-13-13-13-16-13-13-13-13-13-13-13-13-19-18-13-|
A|-16-13-13-13-16-13-13-13-13-13-13-13-13-19-18-13-|
D|-16-13-13-13-16-13-13-13-13-13-13-13-13-19-18-13-|

E|-------------------------------------------------|
B|-------------------------------------------------|
G|-------------------------------------------------|
D|-16-13-13-13-16-13-13-13-16-16-13-16-------------|
A|-16-13-13-13-16-13-13-13-16-16-13-16-12-13-12----|
D|-16-13-13-13-16-13-13-13-16-16-13-16----------13-|

E|---------------------------------------------|
B|---------------------------------------------|
G|---------------------------------------------|
D|-16-13-13-13-16-13-13-13-12-12-12-9-12-9-9-9-|
A|-16-13-13-13-16-13-13-13-12-12-12-9-12-9-9-9-|
D|-16-13-13-13-16-13-13-13-12-12-12-9-12-9-9-9-|

REPEAT SECTION 6

[Transition 2]
Both Guitars
E|--------------------|
B|--------------------|
G|--------------------|
D|-12-12-12-9-12-9----|
A|-12-12-12-9-12-9----|
D|-12-12-12-9-12-9----|

[Section 7]
Both Guitars
E|-----------------------------------------------------------------------------------------|
B|-----------------------------------------------------------------------------------------|
G|-----------------------------------------------------------------------------------------|
D|-------------------------------------------------------------------------------x-x-x-x-x-|
A|-------------------------------------------------------------------------------x-x-x-x-x-|
D|-3-3-3-3-3-0-0-0-3-3-3-3-3-0----3-3-3-3-3-0-0-0-3-3-3-3-3-0----3-3-3-3-3-0-0-0-x-x-x-x-x-|

[Section 8]

Both Guitars (play parentheses 2nd time)
E|---------------------------------------------------------------------|
B|---------------------------------------------------------------------|
G|---------------------------------------------------------------------|
D|------------------------------------------------------77777-7777777--|
A|-0-0-3-5b6r5p3-5p3---0-3-5-3-0--0-0-3-5b6r5p3-5p3--0--55555(5555555)-|
D|---------------------------------------------------------------------|(x2)

[Section 9]

Rhythm Guitar (play parentheses 1st time)
E|--------------------------------------------------------------------------|
B|--------------------------------------------------------------------------|
G|--------------------------------------------------------------------------|
D|-----------------------------------------------------------------tens-----|
A|-------------------------------------------------------------(1010101010)-|
D|-5-5-8-10b11r10p8-10p8---5-8-10-8-5--5-5-8-10b11r10-10p8--5--(1010101010)-|(x2)
||
Lead Guitar 1
E|----------------------------------20b21-20-18-20b22------------18-20b21r20p18-20-18------|
B|----------------------------------------------------20-20-20-18----------------------20~-|
G|-----------------------------------------------------------------------------------------|
D|-10bbb12---10b12r10p8--------------------------------------------------------------------|
A|----------------------10--8--10----------------------------------------------------------|
D|-----------------------------------------------------------------------------------------|
||
Lead Guitar 2
E|----------------------------------20b21-20-18-20b22------------18-20b21r20p18-20-18------|
B|----------------------------------------------------20-20-20-18----------------------20~-|
G|-----------------------------------------------------------------------------------------|
D|-----------------------------------------------------------------------------------------|
A|--7bbb8-----------7b8---7b8--10----------------------------------------------------------|
D|-----------------------------------------------------------------------------------------|

REPEAT SECTION 1

[Section 10]

Both Guitars
E|-----------------------------------------------------------------|
B|-----------------------------------------------------------------|
G|-----------------------------------------------------------------|
D|-----------------------------------------------------------------|
A|---------------------------3-------------------------------------|
D|-3-0-0-0-3-0-0-0-3-3-0-3-6---5-0-3-0-0-0-3-0-0-0-0-0-0-0-0-6-5-1-|

E|-------------------------------------------------|
B|-------------------------------------------------|
G|-------------------------------------------------|
D|-------------------------------------------------|
A|---------------------------3---------------------|
D|-3-0-0-0-3-0-0-0-3-3-0-3-6---5-0-3-0-0-0-3-0-0-0-|

E|---------------------------------------------------------------------------|
B|---------------------------------------------------------------------------|
G|---------------------------------------------------------------------------|
D|-10-10-10-7-10-7-7-7-10-10-10-7-10-7---10-10-10-7-10-7-7-7-10-10-10-7-10-7-|
A|-10-10-10-7-10-7-7-7-10-10-10-7-10-7---10-10-10-7-10-7-7-7-10-10-10-7-10-7-|
D|-10-10-10-7-10-7-7-7-10-10-10-7-10-7---10-10-10-7-10-7-7-7-10-10-10-7-10-7-|


************************************

| x    Dead note
| .    Staccato
| /    Slide up
| \    Slide down
| ~    Vibrato
| (n)  Ghost note
| p    Pull-off
| r    Release
| b    Bend

************************************

            
            
Suggest correction
Creating personal tab
Creating personal tab
You can edit any tab online and save it as your Personal.

You can edit, replace or remove any tab part or add personal notes – all changes will be seen only by you.

Personal tabs can be accessed anytime from any device, even offline.
Learn more »
comments
print report bad tab
6 comments total. Showing first comments.
0 reply
ericguitarfob09 61 Jun 26, 2014 07:32 AM

Thank you sir for being the (unofficial) ETID taber! Much appreciated

+3 reply
millarso 2,604 Jun 29, 2014 07:48 PM

Haha. I just love their material, and I am used to some of their techniques.
I figure that I want to learn the songs, so I might as well help everyone else too.

+1 reply
cubfan1091 93 Jul 02, 2014 05:03 PM

pretty sure this is just plain old drop D. no need for a capo

guest
You may want to rate the tab now too:
select rating
Wanna post a correction for this tab? Suggest correction