Oops, an error
Loading. Please wait.

Decayin With The Boys Tab

7,662 views 27 this week
6 commentsread comments
1 2 3 4 5
excellent!
x 6
add to favorites
launch autoscroll
font size
0
reset
how to read this tab
guitar tuner
Tab Pro tools
  • play this tab
  • loop segment
  • change instrument
  • show fretboard
  • metronome
×
Best way to learn
"Decayin With The Boys"
Autoscroll
slow
fast
+/-
esc
set tempo
stop
Contributor
Difficulty
Tuning
intermediate
D A D G B E
---------------------------------------------
  Decayin' With The Boys - Every Time I Die
---------------------------------------------
Tabbed By: millarso (Jake Miller)
E-mail: millarso2.0@gmail.com

Tuning: Drop D

Guitar 1: Left Stereo
Guitar 2: Right Stereo

SECTION 1 
Both Guitars
E|-----------------------------------------------------------------|
B|-----------------------------------------------------------------|
G|-----------------------------------------------------------------|
D|-----------------------------------------------------------------|
A|---------------------------3-------------------------------------|
D|-3-0-0-0-3-0-0-0-3-3-0-3-6---5-0-3-0-0-0-3-0-0-0-0-0-0-0-0-6-5-1-|

E|---------------------------------------------------------------------|
B|---------------------------------------------------------------------|
G|---------------------------------------------------------------------|
D|-------------------------------------------------10-10-10-7-10-7-7-7-|
A|---------------------------3---------------------10-10-10-7-10-7-7-7-|
D|-3-0-0-0-3-0-0-0-3-3-0-3-6---5-0-3-0-0-0-3-0-0-0-10-10-10-7-10-7-7-7-|

REPEAT SECTION 1

SECTION 2
Both Guitars
E|-------------------------------------------------------------------|
B|-------------------------------------------------------------------|
G|-------------------------------------------------------------------|
D|-------------------------------------------------------------------|
A|---------------------------3----------------(Gtr-1-only)-----------|
D|-3-0-0-0-3-0-0-0-3-3-0-3-6---5-0-3-0-0-0-(3-0-0-0-0-0-0-0-0)-6-5-1-|

E|-------------------------------------------------|
B|-------------------------------------------------|
G|-------------------------------------------------|
D|-------------------------------------------------|
A|---------------------------3---------------------|
D|-3-0-0-0-3-0-0-0-3-3-0-3-6---5-0-3-0-0-0-3-0-0-0-|

E|-------------------------------------------------------------------------------|
B|-------------------------------------------------------------------------------|
G|-------------------------------------------------------------------------------|
D|-10-10-10-7-10-7-7-7-10-10-10-7-10-7---10-10-10-7-10-7-7-7-10-10-10-7-10-7-----|
A|-10-10-10-7-10-7-7-7-10-10-10-7-10-7---10-10-10-7-10-7-7-7-10-10-10-7-10-7-----|
D|-10-10-10-7-10-7-7-7-10-10-10-7-10-7---10-10-10-7-10-7-7-7-10-10-10-7-10-7-0-1-|

SECTION 3
Both Guitars
E|----------------------------------------------------------------|
B|----------------------------------------------------------------|
G|----------------------------------------------------------------|
D|------------------------------------------------------x-x-x-x-x-|
A|------------------------------------------------------x-x-x-x-x-|
D|-3-3-3-3-3-0-0-0-3-3-3-3-3-0----3-3-3-3-3-0-0-0-3-3-3-x-x-x-x-x-|

E|-----------------------------------------------------------------|
B|-----------------------------------------------------------------|
G|-----------------------------------------------------------------|
D|-------------------------x-x-x-x---------------------x-x-x-------|
A|-------------------------x-x-x-x---------------------x-x-x-------|
D|-3-3-3-3-3-0-0-0-3-3-3-3-x-x-x-x-3-3-3-3-3-0-0-0-3-3-x-x-x-6-1-3-|

TRANSITION
Guitar 1
E|-------------------------------------------------------------|
B|-------------------------------------------------------------|
G|-------------------------------------------------------------|
D|-------------------------------------------------------------|
A|-------------------------------------------------------------|
D|-0-0-0-0-0-0-0-0-0-0-0-0-0-0---------------------------------|
||
Guitar 2
E|-------------------------------------------------------------|
B|-------------------------------------------------------------|
G|-------------------------------------------------------------|
D|-------------------------------------------------------------|
A|-------------------------------------------------------------|
D|-------------------------------0-0-0-0-0-0-0-0-0-0-0-0-0-0---|

SECTION 4
Both Guitars
E|---------------------------------------------------------------|
B|---------------------------------------------------------------|
G|---------------------------------------------------------------|
D|---------------------------------------------------------------|x3
A|---------------------------------------------------------------|
D|-0-0-0-0-0-0-0-0-0-0-0-0-0-0---0-0-0-0-0-0-0-0-0-0-0-0-0-6-5-1-|

SECTION 5
Guitar 1
E|---------------------------------|
B|---------------------------------|
G|---------------------------------|
D|---------------------------------|x4
A|-----9-9-6-6-----------------0-0-|(let off mutes on 4th repeat)
D|-5-5---------8-8-5-5-8-8-3-3-----|
|| . . . . . . . . . . . . . . . .
||
Guitar 2 (slide guitar)
E|-/12~----\--/15~----\--/19~----\-----/(slide-above-frets)\-|
B|-/12~----\--/15~----\--/19~----\---------------------------|
G|-----------------------------------------------------------|
D|-----------------------------------------------------------|
A|-----------------------------------------------------------|
D|-----------------------------------------------------------|

SECTION 6
Both Guitars
E|-------------------------------------------------|
B|-------------------------------------------------|
G|-------------------------------------------------|
D|-16-13-13-13-16-13-13-13-16-16-13-16-------------|
A|-16-13-13-13-16-13-13-13-16-16-13-16-12-13-12----|
D|-16-13-13-13-16-13-13-13-16-16-13-16----------13-|

E|-------------------------------------------------|
B|-------------------------------------------------|
G|-------------------------------------------------|
D|-16-13-13-13-16-13-13-13-13-13-13-13-13-19-18-13-|
A|-16-13-13-13-16-13-13-13-13-13-13-13-13-19-18-13-|
D|-16-13-13-13-16-13-13-13-13-13-13-13-13-19-18-13-|

E|-------------------------------------------------|
B|-------------------------------------------------|
G|-------------------------------------------------|
D|-16-13-13-13-16-13-13-13-16-16-13-16-------------|
A|-16-13-13-13-16-13-13-13-16-16-13-16-12-13-12----|
D|-16-13-13-13-16-13-13-13-16-16-13-16----------13-|

E|---------------------------------------------|
B|---------------------------------------------|
G|---------------------------------------------|
D|-16-13-13-13-16-13-13-13-12-12-12-9-12-9-9-9-|
A|-16-13-13-13-16-13-13-13-12-12-12-9-12-9-9-9-|
D|-16-13-13-13-16-13-13-13-12-12-12-9-12-9-9-9-|

REPEAT SECTION 6

TRANSITION 2
Both Guitars
E|--------------------|
B|--------------------|
G|--------------------|
D|-12-12-12-9-12-9----|
A|-12-12-12-9-12-9----|
D|-12-12-12-9-12-9----|

SECTION 7
Both Guitars
E|-----------------------------------------------------------------------------------------|
B|-----------------------------------------------------------------------------------------|
G|-----------------------------------------------------------------------------------------|
D|-------------------------------------------------------------------------------x-x-x-x-x-|
A|-------------------------------------------------------------------------------x-x-x-x-x-|
D|-3-3-3-3-3-0-0-0-3-3-3-3-3-0----3-3-3-3-3-0-0-0-3-3-3-3-3-0----3-3-3-3-3-0-0-0-x-x-x-x-x-|

SECTION 8
Both Guitars (play parentheses 2nd time)
E|---------------------------------------------------------------------|
B|---------------------------------------------------------------------|
G|---------------------------------------------------------------------|
D|------------------------------------------------------77777-7777777--|x2
A|-0-0-3-5b6r5p3-5p3---0-3-5-3-0--0-0-3-5b6r5p3-5p3--0--55555(5555555)-|
D|---------------------------------------------------------------------|

SECTION 9
Rhythm Guitar (play parentheses 1st time)
E|--------------------------------------------------------------------------|
B|--------------------------------------------------------------------------|
G|--------------------------------------------------------------------------|
D|-----------------------------------------------------------------tens-----|x2
A|-------------------------------------------------------------(1010101010)-|
D|-5-5-8-10b11r10p8-10p8---5-8-10-8-5--5-5-8-10b11r10-10p8--5--(1010101010)-|
||
Lead Guitar 1
E|----------------------------------20b21-20-18-20b22------------18-20b21r20p18-20-18------|
B|----------------------------------------------------20-20-20-18----------------------20~-|
G|-----------------------------------------------------------------------------------------|
D|-10bbb12---10b12r10p8--------------------------------------------------------------------|
A|----------------------10--8--10----------------------------------------------------------|
D|-----------------------------------------------------------------------------------------|
||
Lead Guitar 2
E|----------------------------------20b21-20-18-20b22------------18-20b21r20p18-20-18------|
B|----------------------------------------------------20-20-20-18----------------------20~-|
G|-----------------------------------------------------------------------------------------|
D|-----------------------------------------------------------------------------------------|
A|--7bbb8-----------7b8---7b8--10----------------------------------------------------------|
D|-----------------------------------------------------------------------------------------|

REPEAT SECTION 1

SECTION 10
Both Guitars
E|-----------------------------------------------------------------|
B|-----------------------------------------------------------------|
G|-----------------------------------------------------------------|
D|-----------------------------------------------------------------|
A|---------------------------3-------------------------------------|
D|-3-0-0-0-3-0-0-0-3-3-0-3-6---5-0-3-0-0-0-3-0-0-0-0-0-0-0-0-6-5-1-|

E|-------------------------------------------------|
B|-------------------------------------------------|
G|-------------------------------------------------|
D|-------------------------------------------------|
A|---------------------------3---------------------|
D|-3-0-0-0-3-0-0-0-3-3-0-3-6---5-0-3-0-0-0-3-0-0-0-|

E|---------------------------------------------------------------------------|
B|---------------------------------------------------------------------------|
G|---------------------------------------------------------------------------|
D|-10-10-10-7-10-7-7-7-10-10-10-7-10-7---10-10-10-7-10-7-7-7-10-10-10-7-10-7-|
A|-10-10-10-7-10-7-7-7-10-10-10-7-10-7---10-10-10-7-10-7-7-7-10-10-10-7-10-7-|
D|-10-10-10-7-10-7-7-7-10-10-10-7-10-7---10-10-10-7-10-7-7-7-10-10-10-7-10-7-|

Pretty simple song, fun groove. I've made major changes to this recently, so it
should hopefully be to your liking.
Please rate & comment.
Thanks,
millarso

************************************

| /   slide up
| \   slide down
| h   hammer-on
| p   pull-off
| ~   vibrato
| +   harmonic
| x   Mute note
| b   Bend
| pb  Pre-bend
| br  BenDrelease
| pbr Pre-bend release
| brb Bend release bend

************************************
comments
print report bad tab
6 comments total. Showing first comments.
0 reply
ericguitarfob09 wrote on June 26 2014, 11:32 am

Thank you sir for being the (unofficial) ETID taber! Much appreciated

+2 reply
millarso wrote on June 29 2014, 11:48 pm

Haha. I just love their material, and I am used to some of their techniques.
I figure that I want to learn the songs, so I might as well help everyone else too.

+1 reply
cubfan1091 wrote on July 2 2014, 09:03 pm

pretty sure this is just plain old drop D. no need for a capo

I want to post or [tab]
guest
You may want to rate the tab now too:
select rating
Please do not post tabs as comments. Select "correction" instead!