Oops, an error
Loading. Please wait.

Fear And Trembling Tab

version 2
version 2

Whole song

253 views 3 this week
no commentswrite comment
1 2 3 4 5
2 more votes to show rating
add to favorites
launch autoscroll
font size
0
reset
how to read this tab
guitar tuner
Autoscroll
slow
fast
+/-
esc
set tempo
stop
Help us to improve Ultimate-Guitar.com Take our survey!
×
Author
Difficulty
intermediate
-----------------------------------------
  Fear And Trembling – Every Time I Die
-----------------------------------------
Tabbed by: millarso (Jake Miller)
E-mail: millarso2.0@gmail.com

Tuning: Standard with E Dropped A

Guitar 1: Left Stereo
Guitar 2: Right Stereo

[INTRO]
Guitar 1 (lo-fi, tinny sounding)
E|---------------------------3--------------------------------3-----|
B|----3----------------3-------0-------3----------------3-------0---|
G|------3-----3/-6-------3-0-----3-------3-----3/-6*------3-0-----3-|
D|------------------------------------------------------------------|
A|------------------------------------------------------------------|
A|--2-----0-2------0-2-------------0-2-----0-2------0-2-------------|

Guitar 1
E|---------------------------3--------------------------------3-----|
B|----3----------------3-------0-------3----------------3-------0---|
G|------3-----3/-6-------3-0-----3-------3-----3/-6*------3-0-----3-|
D|------------------------------------------------------------------|
A|------------------------------------------------------------------|
A|--2-----0-2------0-2-------------0-2-----0-2------0-2-------------|
||
Guitar 2
E|----------------------------15--------------------------------15-----|
B|----15---------------15-------12------15---------------15-------12---|
G|------15---15/-18------15-12----15------15---15/-18*-----15-12----15-|
D|---------------------------------------------------------------------|
A|---------------------------------------------------------------------|
A|---------------------------------------------------------------------|

NOTE: I have a hunch that they used an octave pedal to do the Guitar 2 part
above and played the same riff as Guitar 1, possibly alternating the pedal
on and off for the hits on the bottom string.

[SECTION 1]
Both Guitars
E|---------------------------3--------------------------------3-----|
B|----3----------------3-------0-------3----------------3-------0---|
G|------3-----3/-6-------3-0-----3-------3-----3/-6-------3-0-----3-|
D|------------------------------------------------------------------|
A|------------------------------------------------------------------|
A|--2-----0-2------0-2-------------0-2-----0-2------0-2-------------|

E|---------------------------3--------------------------------3---------|
B|----3----------------3-------0-------3----------------3-------0-------|
G|------3-----3/-6-------3-0-----3-------3-----3/-6*------3-0-----3-----|
D|----------------------------------------------------------------------|
A|----------------------------------------------------------------------|
A|--2-----0-2------0-2-------------0-2-----0-2------0-2-------------0-2-|

[TRANSITION]
Guitar 1
E|-------------------------------------------------------------------------|
B|-------------------------------------------------------------------------|
G|-------------------------------------------------------------------------|
D|-------------------------------------------------------------------------|
A|-------------------------------------------------------------------------|
A|-(0-2)-2-2-3-3-6-6-0-2-2-2-3-3-6-6-0-0-0-0-2-2-3-3-6-6-0-2-2-2-3-3-6-6-0-|

Both Guitars
E|-------------------------------------------|
B|-------------------------------------------|
G|-------------------------------------------|
D|-------------------------------------------|
A|-------------------------------------------|
A|-12-12-12-11-11-5-5/6-12-12-12-11-11-5-5/6-|

[SECTION 2]
Both Guitars
E|-------------------------------------------------------------------------|
B|-------------------------------------------------------------------------|
G|-------------------------------------------------------------------------|
D|----------------------------------------------------------------------|
A|---------------0-0---------------0-0-0--------------------------------|
A|-2-2-2-3-3-6-6-0-0-2-2-3-3-6-6-0-0-0-0-2-2-3-3-6-6-0-2-2-2-3-3-6-6-0-|
                 . .               . . .

E|----------------------|
B|----------------------|
G|----------------------|
D|----------------------|
A|----------------------|
A|-12-12-12-11-11-5-5/6-|

E|-------------------------------------------------------------------------|
B|-------------------------------------------------------------------------|
G|-------------------------------------------------------------------------|
D|----------------------------------------------------------------------|
A|---------------0-0---------------0-0-0--------------------------------|
A|-2-2-2-3-3-6-6-0-0-2-2-3-3-6-6-0-0-0-0-2-2-3-3-6-6-0-2-2-2-3-3-6-6-0-|
                 . .               . . .

E|-----------------------------------------|
B|--------------10~------------------------|
G|-----------12~---12----------------------|
D|-8-11-8----------------------------------|
A|-9-12-9----------------------------------|
A|---------0----------12-12-12-11-11-5-5/6-|

E|-------------------------------------------------------------------------|
B|-------------------------------------------------------------------------|
G|-------------------------------------------------------------------------|
D|----------------------------------------------------------------------|
A|---------------0-0---------------0-0-0--------------------------------|
A|-2-2-2-3-3-6-6-0-0-2-2-3-3-6-6-0-0-0-0-2-2-3-3-6-6-0-2-2-2-3-3-6-6-0-|
                 . .               . . .

E|----------------------|
B|----------------------|
G|----------------------|
D|----------------------|
A|----------------------|
A|-12-12-12-11-11-5-5/6-|

E|-------------------------------------------------------------------------|
B|-------------------------------------------------------------------------|
G|-------------------------------------------------------------------------|
D|----------------------------------------------------------------------|
A|---------------0-0---------------0-0-0--------------------------------|
A|-2-2-2-3-3-6-6-0-0-2-2-3-3-6-6-0-0-0-0-2-2-3-3-6-6-0-2-2-2-3-3-6-6-0-|
                 . .               . . .

E|--------------------------------------------------------------|
B|--------------10~---------------------------------------------|
G|-----------12~---12-------------------------------------------|
D|-8-11-8-------------------------------------------------------|
A|-9-12-9-------------------------------------------------------|
A|---------0----------12-12-12-11-11-5-5/6-12-12-12-11-11-5-5/6-|

E|-------------------------------------------|
B|-------------------------------------------|
G|-------------------------------------------|
D|-------------------------------------------|
A|-------------------------------------------|
A|-12-12-12-11-11-5-5/6-12-12-12-11-11-5-5/6-|

[SECTION 3]
Both Guitars (slow)                   1,2,3.     4.  
E|--------------------------------|  |----------|-----------------|
B|------10-----------10------10---|  |----------|-----------------|
G|---12~----------12~-----12~-----|  |----------|-----------------|
D|--------------------------------|x4|-8--11--8-|-8-11-9--8-11-9--|
A|--------------------------------|  |-9--12--9-|-9-12-10-9-12-10-|
A|-0-------0-12-0-------0-------0-|  |----------|-----------------|

E|-------------------------------------------|
B|------10-----------10------10--------------|
G|---12~----------12~-----12~----------------|
D|---------------------------------8--11--8--|
A|---------------------------------9--12--9--|
A|-0-------0-12-0-------0-------0------------|

E|--------------------------------------------|
B|------10-----------10------10---------------|
G|---12~----------12~-----12~-----------------|
D|---------------------------------8-11--9-8--|
A|---------------------------------9-12-10-9--|
A|-0-------0-12-0-------0-------0-------------|

[SECTION 4]
Both Guitars
E|------------------------------------------------------------------|
B|------------------------------------------------------------------|
G|------------------------------------------------------------------|
D|------------------------------------------------------------------|
A|--------------------------------------------------------------0-0-|
A|-0-3-5-0-5-0-3-5-0-3-5-0-6-5-2-0-3-5-0-5-0-3-5-0-3-5-0-6-5-2--0-0-|
                                                                . .

E|----------------------------------------|
B|----------------------------------------|
G|----------------------------------------|
D|----------------------------------------|
A|----------------------------------------|
A|-0-10-12-0-12-10b12---0-10-12-0-13-12-9-|

E|-----------------------------------------------|
B|-----------------------------------------------|
G|-----------------------------------------------|
D|--------------------------------8-10--9-8-11-8-|
A|--------------------------------9-12-10-9-12-9-|
A|-0-10-12-0-12-10b12---0-10-12-0----------------|

[SECTION 5]
Guitar 1
E|-------------------------------------------|
B|------11-----------11------11--------------|
G|---12~----------12~-----12~----------------|
D|---------------------------------8--11--8--|
A|---------------------------------9--12--9--|
A|-0-------0-12-0-------0-------0--9--12--9--|
||
Guitar 2
E|-------------------------------------------|
B|------15-----------15------15--------------|
G|---17~----------17~-----17~----------------|
D|---------------------------------8--11--8--|
A|---------------------------------9--12--9--|
A|-0-------0-12-0-------0-------0--9--12--9--|

Guitar 1
E|---------------------------------------------------|
B|------11-----------11------11----------------------|
G|---12~----------12~-----12~------------------------|
D|---------------------------------8-11--9-8-11--9---|
A|---------------------------------9-12-10-9-12-10-0-|
A|-0-------0-12-0-------0-------0------------------0-|
||
Guitar 2
E|---------------------------------------------------|
B|------15-----------15------15----------------------|
G|---17~----------17~-----17~------------------------|
D|---------------------------------8-11--9-8-11--9---|
A|---------------------------------9-12-10-9-12-10-0-|
A|-0-------0-12-0-------0-------0------------------0-|

END

Hope you all enjoy. This song is sludgy and relies on a lot of distortion
dissonance so crank the gain. It is especially important to let the notes I
marked with a ~ ring through the other notes for those painful harmonies.
Please rate and comment.

************************************
| .   palm mute (below bar)
| /   slide up
| \   slide down
| ~   let note ring
| b   Bend
| *   pinch harmonic

************************************
Suggest correction
Give kudos to tab author, rate the tab!
1 2 3 4 5
comments
print report bad tab
guest
You may want to rate the tab now too:
select rating
Wanna post a correction for this tab? Suggest correction