Oops, an error
Loading. Please wait.

Glitches Tab

version 2
version 2

Whole song

  • Slighty more refined version, based around their live performance.
322 views 6 this week
1 commentread comment
1 2 3 4 5
x 3
add to favorites
launch autoscroll
font size
0
reset
how to read this tab
guitar tuner
Autoscroll
slow
fast
+/-
esc
set tempo
stop
Help us to improve Ultimate-Guitar.com Take our survey!
×
Author
Difficulty
Tuning
intermediate
D A D G B E
About this tab version
Slighty more refined version, based around their live performance. Was this info helpful? Yes No
Every Time I Die – Glitches

Album: Low Teens
Tuning: Drop D 

(/) Slide Up  (.) Palm Mute  (p) Pull Off  (b) Bend  (t) Tremelo-Picking  (*) Harmonic  (#) Pinch-Harmonic

Intro:

E|---|
B|-0-|
G|-0-|
D|-0-|
A|---|
D|---|
   t

Main Riff GTR 1:

E|------0-----------------------------0--------------------------|
B|------0-----------------------------0--------------------------|
G|------0-----------------------------0--------------------------|
D|-1----0----2----2----0----2----2----0----2----1----------------|
A|-1---------2----2----0----2----2---------2----1----0-0-0-0-0-0-|
D|-----------2----2----0----2----2---------2----1----0-0-0-0-0-0-|
                                                     . . . . . .        

E|------0-----------------------------0--------------------------|
B|------0-----------------------------0--------------------------|
G|------0-----------------------------0--------------------------|
D|-1----0----2----2----0----2----2----0----2----1-1-1-1----------|
A|-1---------2----2----0----2----2---------2----1-1-1-1----------|
D|-----------2----2----0----2----2---------2----1-1-1-1----------|
                                                . . . .  

E|------0-----------------------------0--------------------------|
B|------0-----------------------------0--------------------------|
G|------0-----------------------------0--------------------------|
D|-1----0----2----2----0----2----2----0----2----1----------------|
A|-1---------2----2----0----2----2---------2----1--6-3-5-2-------|
D|-----------2----2----0----2----2---------2----1----------------|


E|------0-----------------------------0--------------------------|
B|------0-----------------------------0--------------------------|
G|------0-----------------------------0--------------------------|
D|-1----0----2----2----0----2----2----0----2----1-0-0-0----------|
A|-1---------2----2----0----2----2---------2----1-0-0-0----------|
D|-----------2----2----0----2----2---------2----1-0-0-0----------|
                                                  . . .


Main Riff GTR 2:

E|------0-----------------------------0--------------------------|
B|------0-----------------------------0--------------------------|
G|------0-----------------------------0--------------------------|
D|-1----0----2----2----0----2----2----0----2----1----------------|
A|-1---------2----2----0----2----2---------2----1----0-0-0-0-0-0-|
D|-----------2----2----0----2----2---------2----1----0-0-0-0-0-0-|
                                                     . . . . . .        

E|------0-----------------------------0--------------------------|
B|------0-----------------------------0--------------------------|
G|------0-----------------------------0--------------------------|
D|-1----0----2----2----0----2----2----0----2----1-1-1-1----------|
A|-1---------2----2----0----2----2---------2----1-1-1-1----------|
D|-----------2----2----0----2----2---------2----1-1-1-1----------|
                                                . . . .  

E|------0-----------------------------0--------------------------|
B|------0-----------------------------0--------------------------|
G|------0-----------------------------0--------------------------|
D|-1----0----2----2----0----2----2----0----2----1--13-10-12-9----|
A|-1---------2----2----0----2----2---------2----1----------------|
D|-----------2----2----0----2----2---------2----1----------------|


E|------0-----------------------------0--------------------------|
B|------0-----------------------------0--------------------------|
G|------0-----------------------------0--------------------------|
D|-1----0----2----2----0----2----2----0----2----1-0-0-0----------|
A|-1---------2----2----0----2----2---------2----1-0-0-0----------|
D|-----------2----2----0----2----2---------2----1-0-0-0----------|
                                                  . . .


Chorus Both GTRs:

E|---------------------------------------------------------------|
B|---------------------------------------------------------------|
G|---------------------------------------------------------------|
D|-2----1----3----6----5------1----3----6----6-------------------|
A|-2----1----3----6----5----0-1----3----6----6----0-0-0----0-0---|
D|-2----1----3----6----5----0-1----3----6----6----0-0-0----0-0---|
                                                  . . .    . .

E|---------------------------------------------------------------|
B|---------------------------------------------------------------|
G|---------------------------------------------------------------|
D|-2----1----3----6----5------1----3----6----6-------------------|
A|-2----1----3----6----5----0-1----3----6----6-0-----------------|
D|-2----1----3----6----5----0-1----3----6----6-0-----------------|
                                               .

E|---------------------------------------------------------------|
B|---------------------------------------------------------------|
G|---------------------------------------------------------------|
D|-2----1----3----6----5------1----3----6----6-------------------|
A|-2----1----3----6----5----0-1----3----6----6----0-0-0----0-0---|
D|-2----1----3----6----5----0-1----3----6----6----0-0-0----0-0---|
                                                  . . .    . .

E|---------------------------------------------------------------|
B|---------------------------------------------------------------|
G|---------------------------------------------------------------|
D|-2----1----3----6----5------1----3----6------------------------|
A|-2----1----3----6----5----0-1----3----6------------------------|
D|-2----1----3----6----5----0-1----3----6------------------------|


E|----------------------------0-|
B|----------------------------0-|
G|----------------------------0-|
D|-------------5----4----3----0-|
A|-0-0-0-0-0-0-3----2----1------|
D|-0-0-0-0-0-0------------------|
   . . . . . .

E|----------------------------0-|
B|----------------------------0-|
G|----------------------------0-|
D|-------------5----4----3----0-|
A|-0-0-0-0-0-0-3----2----1------|
D|-0-0-0-0-0-0------------------|
   . . . . . .

E|-----------------------------------------|
B|-----------------------------------------|
G|-----------------------------------------|
D|-------------5----4----3----5----4----3--|
A|-0-0-0-0-0-0-3----2----1----3----2----1--|
D|-0-0-0-0-0-0-----------------------------|
   . . . . . .

E|---|
B|-0-|
G|-0-|
D|-0-|
A|---|
D|---|
   t

Main Riff GTR 1:

E|------0-----------------------------0--------------------------|
B|------0-----------------------------0--------------------------|
G|------0-----------------------------0--------------------------|
D|-1----0----2----2----0----2----2----0----2----1----------------|
A|-1---------2----2----0----2----2---------2----1----0-0-0-0-0-0-|
D|-----------2----2----0----2----2---------2----1----0-0-0-0-0-0-|
                                                     . . . . . .        

E|------0-----------------------------0--------------------------|
B|------0-----------------------------0--------------------------|
G|------0-----------------------------0-----------------4--------|
D|-1----0----2----2----0----2----2----0----2----1-1-1-1----------|
A|-1---------2----2----0----2----2---------2----1-1-1-1----------|
D|-----------2----2----0----2----2---------2----1-1-1-1----------|
                                                . . . . * 

E|------0-----------------------------0--------------------------|
B|------0-----------------------------0--------------------------|
G|------0-----------------------------0--------------------------|
D|-1----0----2----2----0----2----2----0----2----1----------------|
A|-1---------2----2----0----2----2---------2----1--6-3-5-2-------|
D|-----------2----2----0----2----2---------2----1----------------|


E|------0-----------------------------0--------------------------|
B|------0-----------------------------0--------------------------|
G|------0-----------------------------0--------------------------|
D|-1----0----2----2----0----2----2----0----2----1-0-0-0----------|
A|-1---------2----2----0----2----2---------2----1-0-0-0----------|
D|-----------2----2----0----2----2---------2----1-0-0-0----------|
                                                  . . .


Main Riff GTR 2:

E|------0-----------------------------0--------------------------|
B|------0-----------------------------0--------------------------|
G|------0-----------------------------0--------------------------|
D|-1----0----2----2----0----2----2----0----2----1----------------|
A|-1---------2----2----0----2----2---------2----1----0-0-0-0-0-0-|
D|-----------2----2----0----2----2---------2----1----0-0-0-0-0-0-|
                                                     . . . . . .        

E|------0-----------------------------0--------------------------|
B|------0-----------------------------0--------------------------|
G|------0-----------------------------0-----------------4--------|
D|-1----0----2----2----0----2----2----0----2----1-1-1-1----------|
A|-1---------2----2----0----2----2---------2----1-1-1-1----------|
D|-----------2----2----0----2----2---------2----1-1-1-1----------|
                                                . . . . * 

E|------0-----------------------------0--------------------------|
B|------0-----------------------------0--------------------------|
G|------0-----------------------------0--------------------------|
D|-1----0----2----2----0----2----2----0----2----1--13-10-12-9----|
A|-1---------2----2----0----2----2---------2----1----------------|
D|-----------2----2----0----2----2---------2----1----------------|


E|------0-----------------------------0--------------------------|
B|------0-----------------------------0--------------------------|
G|------0-----------------------------0--------------------------|
D|-1----0----2----2----0----2----2----0----2----1-0-0-0----------|
A|-1---------2----2----0----2----2---------2----1-0-0-0----------|
D|-----------2----2----0----2----2---------2----1-0-0-0----------|
                                                  . . .
Chorus Both GTRs:

E|---------------------------------------------------------------|
B|---------------------------------------------------------------|
G|---------------------------------------------------------------|
D|-2----1----3----6----5------1----3----6----6-------------------|
A|-2----1----3----6----5----0-1----3----6----6----0-0-0----0-0---|
D|-2----1----3----6----5----0-1----3----6----6----0-0-0----0-0---|
                                                  . . .    . .

E|---------------------------------------------------------------|
B|---------------------------------------------------------------|
G|---------------------------------------------------------------|
D|-2----1----3----6----5------1----3----6----6-------------------|
A|-2----1----3----6----5----0-1----3----6----6-0-----------------|
D|-2----1----3----6----5----0-1----3----6----6-0-----------------|
                                               .

E|---------------------------------------------------------------|
B|---------------------------------------------------------------|
G|---------------------------------------------------------------|
D|-2----1----3----6----5------1----3----6----6-------------------|
A|-2----1----3----6----5----0-1----3----6----6----0-0-0----0-0---|
D|-2----1----3----6----5----0-1----3----6----6----0-0-0----0-0---|
                                                  . . .    . .

E|---------------------------------------------------------------|
B|---------------------------------------------------------------|
G|---------------------------------------------------------------|
D|-2----1----3----6----5------1----3----6------------------------|
A|-2----1----3----6----5----0-1----3----6------------------------|
D|-2----1----3----6----5----0-1----3----6------------------------|


E|----------------------------0-|
B|----------------------------0-|
G|----------------------------0-|
D|-------------5----4----3----0-|
A|-0-0-0-0-0-0-3----2----1------|
D|-0-0-0-0-0-0------------------|
   . . . . . .

E|----------------------------0-|
B|----------------------------0-|
G|----------------------------0-|
D|-------------5----4----3----0-|
A|-0-0-0-0-0-0-3----2----1------|
D|-0-0-0-0-0-0------------------|
   . . . . . .

E|----------------------------------------------------|
B|----------------------------------------------------|
G|----------------------------------------------------|
D|-------------5--4--3--5--4--3--5--4--3--------------|
A|-0-0-0-0-0-0-3--2--1--3--2--1--3--2--1--0-0-0-0-0-0-|
D|-0-0-0-0-0-0----------------------------0-0-0-0-0-0-|
   . . . . . .                            . . . . . .

Interlude GTR 1:

E|-------------------|
B|-------------------|
G|-------------------|
D|-------------------|
A|-------------------|
D|-2p1-3/6-2/5-------|


Bridge Both GTRs:

E|--------------------------------------------------|
B|----------------------------5-5-6-----------------|
G|----------------------------3-3-4-----------------|
D|-0------------------------------------------------|
A|-0----0-0-0-0-0-0-0-0-0-0-0-------0-0-0-0-0-0-0-0-|
D|-0----0-0-0-0-0-0-0-0-0-0-0-------0-0-0-0-0-0-0-0-|
        . . . . . . . . . . .       . . . . . . . .

E|-------------------|
B|-------------------|
G|-------------------|
D|-------------------|
A|-------------------|
D|-14p13-15/18-14/17-|


E|--------------------------------------------------|
B|----------------------------5-5-6-----------------|
G|----------------------------3-3-4-----------------|
D|-0------------------------------------------------|
A|-0----0-0-0-0-0-0-0-0-0-0-0-------0-0-0-0-0-0-0-0-|
D|-0----0-0-0-0-0-0-0-0-0-0-0-------0-0-0-0-0-0-0-0-|
        . . . . . . . . . . .       . . . . . . . .

E|---------------------------|
B|---------------------------|
G|---------------------------|
D|-6----5----4----3----0-1-4-|
A|-6----5----4----3----0-1-4-|
D|-6----5----4----3----0-1/4-|


E|--------------------------------------------------|
B|----------------------------5-5-6-----------------|
G|----------------------------3-3-4-----------------|
D|-0------------------------------------------------|
A|-0----0-0-0-0-0-0-0-0-0-0-0-------0-0-0-0-0-0-0-0-|
D|-0----0-0-0-0-0-0-0-0-0-0-0-------0-0-0-0-0-0-0-0-|
        . . . . . . . . . . .       . . . . . . . .

(GTR 1:)

E|-------------------|
B|-------------------|
G|-------------------|
D|-------------------|
A|-------------------|
D|-14p13-15/18-14/17-|

(GTR 2:)

E|-------------------|
B|-------------------|
G|-------------------|
D|-------------------|
A|-------------------|
D|-2p1-3/6-2/5-------|


E|--------------------------------------------------|
B|----------------------------5-5-6-----------------|
G|----------------------------3-3-4-----------------|
D|-0------------------------------------------------|
A|-0----0-0-0-0-0-0-0-0-0-0-0-------0-0-0-0-0-0-0-0-|
D|-0----0-0-0-0-0-0-0-0-0-0-0-------0-0-0-0-0-0-0-0-|
        . . . . . . . . . . .       . . . . . . . .


E|------------------|
B|------------------|
G|------------------|
D|-10-9-8-7-6-5-4-3-|
A|-10-9-8-7-6-5-4-3-|
D|-10-9-8-7-6-5-4-3-|


Mosh 01 Both GTRs:

E|-----------------------------------------------------------------|
B|-5------------------------------5--------------------------------|
G|-3------------------------------3--------------------------------|
D|-----------------1---1-3---3-4------------------6----5----4----3-|
A|---0-0-0-0-0-0-0-1-0-1-3-0-3-4-0--0-0-0-0-0-0-0-6----5----4----3-|
D|---0-0-0-0-0-0-0-1-0-1/3-0-3/4-0--0-0-0-0-0-0-0-6----5----4----3-|
     . . . . . . .                  . . . . . . .

E|--------------------------------------------------------------------------------------------|
B|-5-------------5-5--------------5-----------------------------------------------------------|
G|-3-------------3-3--------------3-----------------------------------------------------------|
D|---------------------1-3---3-4------------------10----9----8----7----6----5-----------------|
A|---0-0-0-0-0-0-----0-1-3-0-3-4-0--0-0-0-0-0-0-0-10----9----8----7----6----5-----------------|
D|---0-0-0-0-0-0-----0-1/3-0-3/4-0--0-0-0-0-0-0-0-10----9----8----7----6----5-5-5-4-4-4-3-3-3-|
     . . . . . .                    . . . . . . .

E|-----------------------------------------------------------------|
B|-5------------------------------5--------------------------------|
G|-3------------------------------3--------------------------------|
D|-----------------1---1-3---3-4------------------6----5----4----3-|
A|---0-0-0-0-0-0-0-1-0-1-3-0-3-4-0--0-0-0-0-0-0-0-6----5----4----3-|
D|---0-0-0-0-0-0-0-1-0-1/3-0-3/4-0--0-0-0-0-0-0-0-6----5----4----3-|
     . . . . . . .                  . . . . . . .

E|--------------------------------------------------------------------------|
B|-5-------------5-5--------------5-----------------------------------------|
G|-3-------------3-3--------------3-----------------------------------------|
D|---------------------1-3---3-4------------------10----9----8----7----6----|
A|---0-0-0-0-0-0-----0-1-3-0-3-4-0--0-0-0-0-0-0-0-10----9----8----7----6----|
D|---0-0-0-0-0-0-----0-1/3-0-3/4-0--0-0-0-0-0-0-0-10----9----8----7----6----|
     . . . . . .                    . . . . . . .

Main Riff GTR 1:

E|------0-----------------------------0--------------------------|
B|------0-----------------------------0--------------------------|
G|------0-----------------------------0--------------------------|
D|-1----0----2----2----0----2----2----0----2----1----------------|
A|-1---------2----2----0----2----2---------2----1----0-0-0-0-0-0-|
D|-----------2----2----0----2----2---------2----1----0-0-0-0-0-0-|
                                                     . . . . . .        

E|------0-----------------------------0--------------------------|
B|------0-----------------------------0--------------------------|
G|------0-----------------------------0--------------------------|
D|-1----0----2----2----0----2----2----0----2----1-1-1-1----------|
A|-1---------2----2----0----2----2---------2----1-1-1-1----------|
D|-----------2----2----0----2----2---------2----1-1-1-1----------|
                                                . . . .  

E|------0-----------------------------0--------------------------|
B|------0-----------------------------0--------------------------|
G|------0-----------------------------0--------------------------|
D|-1----0----2----2----0----2----2----0----2----1----------------|
A|-1---------2----2----0----2----2---------2----1--6-3-5-2-------|
D|-----------2----2----0----2----2---------2----1----------------|


E|------0-----------------------------0--------------------------|
B|------0-----------------------------0--------------------------|
G|------0-----------------------------0--------------------------|
D|-1----0----2----2----0----2----2----0----2----1-0-0-0----------|
A|-1---------2----2----0----2----2---------2----1-0-0-0----------|
D|-----------2----2----0----2----2---------2----1-0-0-0----------|
                                                  . . .


Main Riff GTR 2:

E|------0-----------------------------0--------------------------|
B|------0-----------------------------0--------------------------|
G|------0-----------------------------0--------------------------|
D|-1----0----2----2----0----2----2----0----2----1----------------|
A|-1---------2----2----0----2----2---------2----1----0-0-0-0-0-0-|
D|-----------2----2----0----2----2---------2----1----0-0-0-0-0-0-|
                                                     . . . . . .        

E|------0-----------------------------0--------------------------|
B|------0-----------------------------0--------------------------|
G|------0-----------------------------0--------------------------|
D|-1----0----2----2----0----2----2----0----2----1-1-1-1----------|
A|-1---------2----2----0----2----2---------2----1-1-1-1----------|
D|-----------2----2----0----2----2---------2----1-1-1-1----------|
                                                . . . .  

E|------0-----------------------------0--------------------------|
B|------0-----------------------------0--------------------------|
G|------0-----------------------------0--------------------------|
D|-1----0----2----2----0----2----2----0----2----1--13-10-12-9----|
A|-1---------2----2----0----2----2---------2----1----------------|
D|-----------2----2----0----2----2---------2----1----------------|


E|------0-----------------------------0--------------------------|
B|------0-----------------------------0--------------------------|
G|------0-----------------------------0--------------------------|
D|-1----0----2----2----0----2----2----0----2----1-0-0-0----------|
A|-1---------2----2----0----2----2---------2----1-0-0-0----------|
D|-----------2----2----0----2----2---------2----1-0-0-0----------|
                                                  . . .

Chorus Both GTRs:

E|---------------------------------------------------------------|
B|---------------------------------------------------------------|
G|---------------------------------------------------------------|
D|-2----1----3----6----5------1----3----6----6-------------------|
A|-2----1----3----6----5----0-1----3----6----6----0-0-0----0-0---|
D|-2----1----3----6----5----0-1----3----6----6----0-0-0----0-0---|
                                                  . . .    . .

E|---------------------------------------------------------------|
B|---------------------------------------------------------------|
G|---------------------------------------------------------------|
D|-2----1----3----6----5------1----3----6----6-------------------|
A|-2----1----3----6----5----0-1----3----6----6-0-----------------|
D|-2----1----3----6----5----0-1----3----6----6-0-----------------|
                                               .

E|---------------------------------------------------------------|
B|---------------------------------------------------------------|
G|---------------------------------------------------------------|
D|-2----1----3----6----5------1----3----6----6-------------------|
A|-2----1----3----6----5----0-1----3----6----6----0-0-0----0-0---|
D|-2----1----3----6----5----0-1----3----6----6----0-0-0----0-0---|
                                                  . . .    . .

E|---------------------------------------------------------------|
B|---------------------------------------------------------------|
G|---------------------------------------------------------------|
D|-2----1----3----6----5------1----3----6------------------------|
A|-2----1----3----6----5----0-1----3----6------------------------|
D|-2----1----3----6----5----0-1----3----6------------------------|


E|----------------------------0-|
B|----------------------------0-|
G|----------------------------0-|
D|-------------5----4----3----0-|
A|-0-0-0-0-0-0-3----2----1------|
D|-0-0-0-0-0-0------------------|
   . . . . . .

E|----------------------------0-|
B|----------------------------0-|
G|----------------------------0-|
D|-------------5----4----3----0-|
A|-0-0-0-0-0-0-3----2----1------|
D|-0-0-0-0-0-0------------------|
   . . . . . .

E|-----------------------------------------|
B|-----------------------------------------|
G|-----------------------------------------|
D|-------------5----4----3----5----4----3--|
A|-0-0-0-0-0-0-3----2----1----3----2----1--|
D|-0-0-0-0-0-0-----------------------------|
   . . . . . .

Prelude GTR 1:

E|---|
B|-0-|
G|-0-|
D|-0-|
A|---|
D|---|
   t

Prelude GTR 2:

E|-------|
B|-10----|
G|-12b14-|
D|-------|
A|-------|
D|-------|


Breakdown GTR 1:

E|-----0--------------0------|
B|-----0--------------0------|
G|-----0--------------0------|
D|-1-2-0-2----1-2-0-1-0-2----|
A|-1-2---2----1-2-0-1---2----|
D|---2---2------2-0-1---2----|


E|-----0--------------0------|
B|-----0--------------0------|
G|-----0--------------0------|
D|-1-2-0-2----1-2-0-1-0-2----|
A|-1-2---2----1-2-0-1---2----|
D|---2---2------2-0-1---2----|


Breakdown Both GTRs:

E|-----0--------------0------|
B|-----0--------------0------|
G|-----0--------------0------|
D|-1-2-0-2----1-2-0-1-0-2----|
A|-1-2---2----1-2-0-1---2----|
D|---2---2------2-0-1---2----|


E|-----0---------------------|
B|-----0---------------------|
G|-----0---------------------|
D|-1-2-0-2----1-2------------|
A|-1-2---2----1-2------------|
D|---2---2------2-0-1-2----6-|


E|-----0--------------0------|
B|-----0--------------0------|
G|-----0--------------0------|
D|-1-2-0-2----1-2-0-1-0-2----|
A|-1-2---2----1-2-0-1---2----|
D|---2---2------2-0-1---2----|


E|-----0---------------------|
B|-----0------------5----5---|
G|-----0------------3----3---|
D|-1-2-0-2--1-2-0-1---6----5-|
A|-1-2---2--1-2-0-1---6----5-|
D|---2---2----2-0-1---6----5-|


E|-----0--------------0------|
B|-----0--------------0------|
G|-----0--------------0------|
D|-1-2-0-2----1-2-0-1-0-2----|
A|-1-2---2----1-2-0-1---2----|
D|---2---2------2-0-1---2----|


E|-----0---------------------|
B|-----0---------------------|
G|-----0---------------------|
D|-1-2-0-2----1-2------------|
A|-1-2---2----1-2------------|
D|---2---2------2-0-1-2----6-|
                           #

E|-----0--------------0------|
B|-----0--------------0------|
G|-----0--------------0------|
D|-1-2-0-2----1-2-0-1-0-2----|
A|-1-2---2----1-2-0-1---2----|
D|---2---2------2-0-1---2----|


E|-----0---------------------|
B|-----0------------5----5---|
G|-----0------------3----3---|
D|-1-2-0-2--1-2-0-1---6----5-|
A|-1-2---2--1-2-0-1---6----5-|
D|---2---2----2-0-1---6----5-|
Suggest correction
Give kudos to tab author, rate the tab!
1 2 3 4 5
comments
print report bad tab
1 comment total.
0 reply
vppark2 1,600 Sep 24, 2016 06:55 PM

Awesome. I think this tab is a lot more accurate than the other one someone else did.

guest
You may want to rate the tab now too:
select rating
Wanna post a correction for this tab? Suggest correction