Oops, an error
Loading. Please wait.

Goddam Kids These Days Tab

990 views 6 this week
3 commentsread comments
1 2 3 4 5
excellent!
x 4
add to favorites
launch autoscroll
font size
0
reset
how to read this tab
guitar tuner
Autoscroll
slow
fast
+/-
esc
set tempo
stop
Help us to improve Ultimate-Guitar.com Take our survey!
×
Contributor
Difficulty
Tuning
millarso 2,871
intermediate
D A D G B E
-----------------------------------------------------------------
Goddam Kids These Days - Every Time I Die
-----------------------------------------------------------------
Tabbed by: millarso (Jake Miller)
Email: millarso2.0@gmail.com
Tuning: Drop D

UPDATE 11/13/13: Thanks to Minesweep for setting a bunch of chord issues
straight for me. Song should be a lot more... correct.

Intro (played sloppily, with light distortion)
e|---------------------------------|
B|---------------------------------|
G|-6--6-6----------------10--------|
D|-x--x-x-4-6-3--10-12-x--x--x-x-x-|x4
A|-5--5-5-4-6-3--10-12-x--9--x-x-x-|
D|--------4-6-3--10-12-x-----x-x-x-|

Riff 1
Guitar 1
e|-------------------------------------------------|
B|-------------------------------------------------|
G|-------------------------------------------------|
D|-5-5-5-4-6-3-5-5-5-4-6-3-5-5-5-4-6-3-5--4--6--3--|
A|-5-5-5-4-6-3-5-5-5-4-6-3-5-5-5-4-6-3-5--4--6--3--|
D|-5-5-5-4-6-3-5-5-5-4-6-3-5-5-5-4-6-3-5--4--6--3--|

Guitar 2
e|-------------------------------------------------|
B|-------------------------------------------------|
G|-------------------------------------------------|
D|-5-5---------5-5---------5-5---------5--4--6--3--|
A|-5-5---------5-5---------5-5---------5--4--6--3--|
D|-5-5---------5-5---------5-5---------5--4--6--3--|

Riff 2
Both Guitars
e|---------------------------------|
B|---------------------------------|
G|-6-6-6----------------10---------|
D|-x-x-x-4-6-3--10-12-0--x---------|
A|-5-5-5-4-6-3--10-12-0--9---------|
D|-0-0-0-4-6-3--10-12-0----5-4-6-3-|
                      .

e|-------------------------------------------------------------------|
B|-------------------------------------------------------------------|
G|-------------------------------------------------------------------|
D|-12-12-12-11-13-10-12-12-12-11-13-10-12-12-12-11-13-10-5--4--6--3--|
A|-12-12-12-11-13-10-12-12-12-11-13-10-12-12-12-11-13-10-5--4--6--3--|
D|-12-12-12-11-13-10-12-12-12-11-13-10-12-12-12-11-13-10-5--4--6--3--|

Repeat Riff 2 (x1) but end it like this...
Guitar 1
e|--------------|
B|--------------|
G|------------6-|
D|-5--4--6--3-x-|
A|-5--4--6--3-5-|
D|-5--4--6--3-0-|

Guitar 1
e|--------------|
B|--------------|
G|--------------|
D|-5--4--6--3-0-|
A|-5--4--6--3-0-|
D|-5--4--6--3-0-|

Riff 3
Guitar 1
e|----------------------------------------------------------|
B|----------------------------------------------------------|
G|-----------------------------6--6-6-6-6--6--6-6-6--6------|
D|-4-6-----7-----6-----7-------x--x-x-x-x--x--x-x-x--x------|
A|-----4-5---4-5---4-5---------5--5-5-5-5--5--5-5-5--5------|
D|-----------------------------0--0-0-0-0--0--0-0-0--0-0--0-|

Guitar 2
e|----------------------------------------------------------|
B|----------------------------------------------------------|
G|----------------------------------------------------------|
D|-----------------------------0--0-0-0-0--0--0-0-0--0------|
A|-----------------------------0--0-0-0-0--0--0-0-0--0------|
D|-0-0-0-0-0-0-0-0-0-0-0-0-0-0-0--0-0-0-0--0--0-0-0--0-0--0-|

Guitar 1
e|---------------------------------------------------------------------|
B|---------------------------------------------------------------------|
G|-----------------------------6--6-6-6-6-6--------------------------6-|
D|-4-6-----7-----6-----7-------x--x-x-x-x-x---5-5-5-4--6-6-6-3--3--3-x-|
A|-----4-5---4-5---4-5---------5--5-5-5-5-5---5-5-5-4--6-6-6-3--3--3-5-|
D|-----------------------------0--0-0-0-0-0---5-5-5-4--6-6-6-3--3--3---|

Guitar 2
e|---------------------------------------------------------------------|
B|---------------------------------------------------------------------|
G|---------------------------------------------------------------------|
D|-----------------------------0--0-0-0-0-0---5-5-5-4--6-6-6-3--3--3-0-|
A|-----------------------------0--0-0-0-0-0---5-5-5-4--6-6-6-3--3--3-0-|
D|-0-0-0-0-0-0-0-0-0-0-0-0-0-0-0--0-0-0-0-0---5-5-5-4--6-6-6-3--3--3-0-|

Repeat Riff 3 (x1) but end it like this for both guitars...
e|----------------------|
B|----------------------|
G|----------------------|
D|-5-5-5-4--6-6-6-3--3--|
A|-5-5-5-4--6-6-6-3--3--|
D|-5-5-5-4--6-6-6-3--3--|

Transition to Riff 4
Guitar 1
e|---------------------------------|
B|---------------------------------|
G|-6-------6-------6-6-6-----------|
D|-x-------x-------x-x-x---5-4-6-3-|
A|-5-0-0-0-5-0-0-0-5-5-5-0-5-4-6-3-|
D|-0-0-0-0-0-0-0-0-0-0-0-0-5-4-6-3-|
     . . .   . . .       .

Guitar 2
e|---------------------------------|
B|---------------------------------|
G|---------------------------------|
D|-0-------0-------0-0-0---5-4-6-3-|
A|-0-0-0-0-0-0-0-0-0-0-0-0-5-4-6-3-|
D|-0-0-0-0-0-0-0-0-0-0-0-0-5-4-6-3-|
     . . .   . . .       .

Riff 4
Guitar 1
e|-----------------------------------------------------------------|
B|-----------------------------------------------------------------|
G|-6---------------------------6---6-------6-------6-6-6-----------|
D|-x---------------------------x---x-------x-------x-x-x---5-4-6-3-|x2
A|-5-0-0-0-0-0-0-0-0-0-0-0-0-0-5-0-5-0-0-0-5-0-0-0-5-5-5-0-5-4-6-3-|
D|-0-0-0-0-0-0-0-0-0-0-0-0-0-0-0-0-0-0-0-0-0-0-0-0-0-0-0-0-5-4-6-3-|
     . . . . . . . . . . . . .   .   . . .   . . .       .

Guitar 2
e|-----------------------------------------------------------------|
B|-----------------------------------------------------------------|
G|-----------------------------------------------------------------|
D|-0---------------------------0---0-------0-------0-0-0---5-4-6-3-|x2
A|-0-0-0-0-0-0-0-0-0-0-0-0-0-0-0-0-0-0-0-0-0-0-0-0-0-0-0-0-5-4-6-3-|
D|-0-0-0-0-0-0-0-0-0-0-0-0-0-0-0-0-0-0-0-0-0-0-0-0-0-0-0-0-5-4-6-3-|
     . . . . . . . . . . . . .   .   . . .   . . .       .

Riff 5
Guitar 1
e|-----------------------------------------------|
B|-----------------------------------------------|
G|-6----6----6-6-6---6--6----6----6-6-6--13\-----|
D|-x----x----x-x-x---x--x----x----x-x-x---x------|
A|-5----5----5-5-5---5--5----5----5-5-5--12\-0-0-|
D|-0----0----0-0-0---0--0----0----0-0-0------0-0-|
                                             . .
Guitar 2
e|-----------------------------------------------|
B|-----------------------------------------------|
G|---------------------------------------13\-----|
D|-0----0----0-0-0---0--0----0----0-0-0---x------|
A|-0----0----0-0-0---0--0----0----0-0-0--12\-0-0-|
D|-0----0----0-0-0---0--0----0----0-0-0------0-0-|
                                             . .
Guitar 1
e|-------------------------------------------------|
B|-------------------------------------------------|
G|-6----6----6-6-6---6--6----6----6-6-6------------|
D|-x----x----x-x-x---x--x----x----x-x-x--7--11--0~-|
A|-5----5----5-5-5---5--5----5----5-5-5--7--11--0~-|
D|-0----0----0-0-0---0--0----0----0-0-0--7--11--0~-|

Guitar 2
e|-------------------------------------------------|
B|-------------------------------------------------|
G|-------------------------------------------------|
D|-0----0----0-0-0---0--0----0----0-0-0--7--11--0~-|
A|-0----0----0-0-0---0--0----0----0-0-0--7--11--0~-|
D|-0----0----0-0-0---0--0----0----0-0-0--7--11--0~-|

Riff 6
Guitar 1
e|-------------------------------------------------------------------|
B|-------------------------------------------------------------------|
G|-6---------------------------------------------------------------6-|
D|-x----------------------------------------------5--4--6--3--3--3-x-|
A|-5----------------------------------------------5--4--6--3--3--3-5-|
D|-0----------------------------------------------5--4--6--3--3--3-0-|

Guitar 2 (I summed up those long sections of open notes)
e|-------------------------------------------------------------------|
B|-------------------------------------------------------------------|
G|-6---------6---------6--6---------6--6-6-6-6-6---------------------|
D|-x---------x---------x--x---------x--x-x-x-x-x--5--4--6--3--3--3-0-|
A|-5---------5---------5--5---------5--5-5-5-5-5--5--4--6--3--3--3-0-|
D|---0-(x14)---0-(x12)------0-(x14)---------------5--4--6--3--3--3-0-|

Repeat Riff 3 (x2) with the alternate ending on the last repeat like before
Repeat Transition to Riff 4 (x1)
Repeat Riff 4 (x1)
Repeat Riff 5 (x1)
After a pause...
Repeat Riff 2 (x2) but end with...

Outro
e|----------------------------------------------------------------------------------------|
B|----------------------------------------------------------------------------------------|
G|----------------------------------------------------------------------------------------|
D|-12-12-12-11-13-10-12-12-12-11-13-10-12-12-12-11-13-10-5-5-5-4-4-4-6-6-6-3-3-3-------0~-|
A|-12-12-12-11-13-10-12-12-12-11-13-10-12-12-12-11-13-10-5-5-5-4-4-4-6-6-6-3-3-3----4--0~-|
D|-12-12-12-11-13-10-12-12-12-11-13-10-12-12-12-11-13-10-5-5-5-4-4-4-6-6-6-3-3-3-7-----0~-|

There you go. It looks like people have been looking for this for a while.
Some of those dissonances are pretty hard to tell from a listen, but this sounds pretty
good to me.
Hope it works for you.
Please rate & comment.

millarso 
comments
print report bad tab
3 comments total.
0 reply
Danowa 481 wrote on July 29 2013, 01:58 pm

in riff 4 im pretty sure its

e|-----------------------------------------------------------------|
B|-----------------------------------------------------------------|
G|-6---------------------------6---6-------6-------6-6-6-----------|
D|-x---------------------------x---x-------x-------x-x-x---5-4-6-3-|
A|-5-0-0-0-0-0-0-0-0-0-0-0-0-0-5-0-5-0-0-0-5-0-0-0-5-5-5-0-5-4-6-3-|
D|-0-0-0-0-0-0-0-0-0-0-0-0-0-0-0-0-0-0-0-0-0-0-0-0-0-0-0-0-5-4-6-3-|

other then that pretty good!

0 reply
Minesweep 11 wrote on November 13 2013, 10:57 am

Few things I noticed after trying your tab

in intro
e|---------------------------------|
B|---------------------------------|
G|-6--6-6----------------10--------|
D|-x--x-x-4-6-3--10-12-x--x--x-x-x-|
A|-5--5-5-4-6-3--10-12-x--9--x-x-x-|
D|--------4-6-3--10-12-x-----x-x-x-|
_ _ _

In others

e|---------------------------------|
B|---------------------------------|
G|-6-6-6----------------10---------|
D|-x-x-x-4-6-3--10-12-0--x---------|
A|-5-5-5-4-6-3--10-12-0--9---------|
D|-0-0-0-4-6-3--10-12-0----5-4-6-3-|
_

e|-------------------------------------------------|
B|-------------------------------------------------|
G|-------------------------------------------------|
D|-5-5-5-4-6-3-5-5-5-4-6-3-5-5-5-4-6-3-5--4--6--3--|
A|-5-5-5-4-6-3-5-5-5-4-6-3-5-5-5-4-6-3-5--4--6--3--|
D|-5-5-5-4-6-3-5-5-5-4-6-3-5-5-5-4-6-3-5--4--6--3--|
_ _ _ _

e|-------------------------------------------------------------------|
B|-------------------------------------------------------------------|
G|-------------------------------------------------------------------|
D|-12-12-12-11-13-10-12-12-12-11-13-10-12-12-12-11-13-10-5--4--6--3--|
A|-12-12-12-11-13-10-12-12-12-11-13-10-12-12-12-11-13-10-5--4--6--3--|
D|-12-12-12-11-13-10-12-12-12-11-13-10-12-12-12-11-13-10-5--4--6--3--|
__ __ __ _

Same thing in the whole song: D|-5-4-6-3-|
And in riff 5 and in the very end: D|-7-11-0-|

Still a very good tab, thanks!

0 reply
millarso 2,871 wrote on November 13 2013, 07:40 pm

Well, I'll be damned.
Now that I play that, I actually feel kind of embarrassed about how off so much of this is.
I'll definitely update this, thanks.

I want to post or [tab]
guest
You may want to rate the tab now too:
select rating
Please do not post tabs as comments. Select "correction" instead!