Oops, an error
Loading. Please wait.

I Been Gone A Long Time tab

version 1
version 1

Whole song

Interactive

4,720 views 1 this week
1 commentread comment
1 2 3 4 5
x 3
add to favorites
×
Save as Personal and add changes to this tab that will be seen only by you. Learn more ›
×
You can save this tab as Personal to edit and correct it or add notes. All changes will be seen only by you. Learn more »
launch autoscroll
font size
0
reset
how to read this tab
guitar tuner
edit
Autoscroll
slow
fast
+/-
esc
set tempo
stop
-----------------------------------------------------------------------------
Band: Every Time I Die (www.shittydudes.com)
Song: I Been Gone A Long Time
-----------------------------------------------------------------------------

Drop D tuning 
Tabbed by Michael Barnard
K_S_X@hotmail.com 
with help from omnifreak dave rezendes and Daniel Thomason 

1 "what we're doin is so wrong..." 
"what she thinks is all right..." 
" 
E|---------------------------------------------------------------------| 
B|---------------------------------------------------------------------| 
G|------------------------------------------------3~-------------------| 
D|--0---3h0-5h0---0(3)-—3h0-5h0---0(3)—-3h0-5h0---------5h0-3h5---3----| 
A|--0-------------0(3)------------0(3)----------------------------3----| 
D|--0-----------0-0(3)----------0-0(3)----------0---------------0-3----| 

2 "balance is a minor setback" 
"one more drink i think should do" 
"so its just as well" 
E|---------------------| 
B|---------------------| 
G|--5---3-5---3-5-3----| 
D|--5---3-5---3-5-3----| 
A|--3---1-3---1-3-1----| 
D|---------------------| 

3 If i could only, make it make you want to want me 
E|---------------------| 
B|---------------------| 
G|---------------------| 
D|---------------------| multiple repeats 
A|---------------------| 
D|--5---3-5---3-5-3----| 

4 
E|-------------------------------------| 
B|-------------------------------------| 
G|-------------------------------------| 
D|--------------------------3h5--------| 
A|----------3h5---------3h5-----3h5----| 
D|--0---3h5-----0---3h5----------------| 

5 "i wish that i could say" 
E|---------------------------------------------------------------------| 
B|---------------------------------------------------------------------| 
G|--------------------------------------------------3h0----------------| 
D|--3---0-0-0-0-0-0-----3h0-5h0---0(3)--0-0-0-0-0-0-----5h0-3h5---3----| 
A|--3---0-0-0-0-0-0---------------0(3)--0-0-0-0-0-0---------------3----| 
D|--3---0-0-0-0-0-0-3h0---------0-0(3)--0-0-0-0-0-0-------------0-3----| 
PM * * * * * * * * * * * * 

6 "i love the way you stand so close to a guy.." 
E|---------------------------------------------------------------------| 
B|---------------------------------------------------------------------| 
G|----------------------------------------------------3~---------------| 
D|--0--3-0---------0-3(3)-0--------0-3(3)—0----------------5h0-3h5-----| 
A|--0--3-0---------0-3(3)-0--------0-3(3)-0----------------------------| 
D|--0--3-0---------0-3(3)-0--------0-3(3)-0----------------------------| 


7 
E|--------------------------------------------| 
B|--------------------------------------------| 
G|--------------------------------------------| 
D|--------------------------------------------| 
A|--------------------------------------------| 
D|--5---3-5---3-5-3-5---3-5-3---0-0-0-0-------| 
PM * * * * 

8 
changeup "there's cocaine" 
E|-----------------------------------------------| 
B|-----------------------------------------------| 
G|----------------------------------------7------| 
D|--0---0-3/5-0---0-3/5-0---0-3/5-0---0-3-7------| 
A|--0---0-3/5-0---0-3/5-0---0-3/5-0---0-3-5------| 
D|--0---0-3/5-0---0-3/5-0---0-3/5-0---0-3--------| 

fill "that took us from the bar..." 
E|---------------------------------------| 
B|---------------------------------------| 
G|---------------------------------------| 
D|--0-6-5--0-5-3--0-3-2--0-0-------------| 
A|--0-6-5--0-5-3--0-3-2--0-0-------------| 
D|--0-6-5--0-5-3--0-3-2--0-0-------------| 

Here's the song order: i think 
1 
2 
1 
2 
3 
4 
5 
2 
4 
2 
1 
6 
1 
2 
7 
5 
8 
email me with questions, if the order is wrong, listen to the 
song a ton of times and you will get it. i saw three tabs for this song, 
one was shit, two were half right, so i combined and fixed them. 
dave

            
            
Suggest correction
Creating personal tab
Creating personal tab
You can edit any tab online and save it as your Personal.

You can edit, replace or remove any tab part or add personal notes – all changes will be seen only by you.

Personal tabs can be accessed anytime from any device, even offline.
Learn more »
Give kudos to tab author, rate the tab!
1 2 3 4 5
comments
print report bad tab
1 comment total.
0 reply
Elemenohpaynee 10 Feb 26, 2013 07:33 PM

This is not correct

guest
Wanna post a correction for this tab? Suggest correction