Oops, an error
Loading. Please wait.

I Didnt Want To Join Your Stupid Cult Anyway Tab

version 1
version 1

Whole song

253 views 15 this week
no commentswrite comment
1 2 3 4 5
2 more votes to show rating
add to favorites
launch autoscroll
font size
0
reset
how to read this tab
guitar tuner
Autoscroll
slow
fast
+/-
esc
set tempo
stop
Help us to improve Ultimate-Guitar.com Take our survey!
×
Author
Difficulty
Tuning
intermediate
D A D G B E
Every Time I Die - I Didn’t Want To Join Your Stupid Cult Anyway

Album: Low Teens
Tuning: Drop D


[Intro] 

GTR01:
E|------------------------------------------------------|
B|------------------------------------------------------|
G|------------------------------------------------------|
D|-7---------5-----7---------5-----7---------5-----7----|
A|-5-0-0-0-0-3-5-6-5-0-0-0-0-3-5-6-5-0-0-0-0-3-5-6-5----|
D|---0-0-0-0---5-6---0-0-0-0---5-6---0-0-0-0---5-6------|
     . . . .         . . . .         . . . .


[Intro]

GTR02:
E|------------------------------------------------------|
B|------------------------------------------------------|
G|------------------------------------------------------|
D|-7---------------7---------------7---------------7----|
A|-5---------------5---------------5---------------5----|
D|------------------------------------------------------|


[Main Riff Both GTR's]

E|-------------------------------------------------|
B|-------------------------------------------------|
G|-------------------------------------------------|
D|-7---------5-----7---------5-----7---------5-----|
A|-5-0-0-0-0-3-5-6-5-0-0-0-0-3-5-6-5-0-0-0-0-3-5-6-|
D|---0-0-0-0---5-6---0-0-0-0---5-6---0-0-0-0---5-6-|
     . . . .         . . . .         . . . .

E|-------------------------------------|
B|-------------------------------------|
G|-------------------------------------|
D|-10-10-10-10-10-10-10-10-10-10-10-10-|
A|-8--8--8--8--8--8--8--8--8--8--8--8--|
D|-------------------------------------|
   .  .  .  .  .  .  .  .  .  .  .  .

E|-------------------------------------------------|
B|-------------------------------------------------|
G|-------------------------------------------------|
D|-7---------5-----7---------5-----7---------5-----|
A|-5-0-0-0-0-3-5-6-5-0-0-0-0-3-5-6-5-0-0-0-0-3-5-6-|
D|---0-0-0-0---5-6---0-0-0-0---5-6---0-0-0-0---5-6-|
     . . . .         . . . .         . . . .

E|------------|
B|------------|
G|------------|
D|-10--10--10-|
A|-8---8---8--|
D|------------|


E|-------------------------------------------------|
B|-------------------------------------------------|
G|-------------------------------------------------|
D|-7---------5-----7---------5-----7---------5-----|
A|-5-0-0-0-0-3-5-6-5-0-0-0-0-3-5-6-5-0-0-0-0-3-5-6-|
D|---0-0-0-0---5-6---0-0-0-0---5-6---0-0-0-0---5-6-|
     . . . .         . . . .         . . . .

E|-------------------------------------|
B|-------------------------------------|
G|-------------------------------------|
D|-------------------------------------|
A|-------------------------------------|
D|-8--8--8--8--8--8--8--8--8--8--8--8--|
   .  .  .  .  .  .  .  .  .  .  .  .

E|-------------------------------------------------|
B|-------------------------------------------------|
G|-------------------------------------------------|
D|-7---------5-----7---------5-----7---------5-----|
A|-5-0-0-0-0-3-5-6-5-0-0-0-0-3-5-6-5-0-0-0-0-3-5-6-|
D|---0-0-0-0---5-6---0-0-0-0---5-6---0-0-0-0---5-6-|
     . . . .         . . . .         . . . .

E|----------------------------------0-------------------------|
B|----------------------------------0-------------------------|
G|----------------------------------0-------------------------|
D|-10-10-10-10-10-10-10-10-10---3r0-0----------10---------3r0-|
A|-8--8--8--8--8--8--8--8--8-------------------8--------------|
D|----------------------------0-------------------------0-----|
                              . *                       . *

[Riff A Both GTR's]

E|--------------------------------------------|
B|--------------------------------------------|
G|--------------------------------------------|
D|-7---------------------7----------------3r0-|
A|-5-5-6-3----8-3-6-0----5-5-6-3----8-3-6-----|
D|---5-6-3----8-3-6-0------5-6-3----8-3-6-----|
                                          *

E|----------------------------------------------|
B|----------------------------------------------|
G|----------------------------------------------|
D|-7---------------------7------------------3r0-|
A|-5-5-6-3----8-3-6-0----5-5-6-3----8-3-6-------|
D|---5-6-3----8-3-6-0------5-6-3----8-3-6-0-----|
                                          . *

[Re-Intro] 

GTR01
E|------------------------------------------------------|
B|------------------------------------------------------|
G|------------------------------------------------------|
D|-7---------5-----7---------5-----7---------5-----7----|
A|-5-0-0-0-0-3-5-6-5-0-0-0-0-3-5-6-5-0-0-0-0-3-5-6-5----|
D|---0-0-0-0---5-6---0-0-0-0---5-6---0-0-0-0---5-6------|
     . . . .         . . . .         . . . .


[Re-Intro]

GTR02:
E|------------------------------------------------------|
B|------------------------------------------------------|
G|------------------------------------------------------|
D|-7---------------7---------------7---------------7----|
A|-5---------------5---------------5---------------5----|
D|------------------------------------------------------|


[Main Riff Both GTRs]

E|-------------------------------------------------|
B|-------------------------------------------------|
G|-------------------------------------------------|
D|-7---------5-----7---------5-----7---------5-----|
A|-5-0-0-0-0-3-5-6-5-0-0-0-0-3-5-6-5-0-0-0-0-3-5-6-|
D|---0-0-0-0---5-6---0-0-0-0---5-6---0-0-0-0---5-6-|
     . . . .         . . . .         . . . .

E|-------------------------------------|
B|-------------------------------------|
G|-------------------------------------|
D|-10-10-10-10-10-10-10-10-10-10-10-10-|
A|-8--8--8--8--8--8--8--8--8--8--8--8--|
D|-------------------------------------|
   .  .  .  .  .  .  .  .  .  .  .  .

E|-------------------------------------------------|
B|-------------------------------------------------|
G|-------------------------------------------------|
D|-7---------5-----7---------5-----7---------5-----|
A|-5-0-0-0-0-3-5-6-5-0-0-0-0-3-5-6-5-0-0-0-0-3-5-6-|
D|---0-0-0-0---5-6---0-0-0-0---5-6---0-0-0-0---5-6-|
     . . . .         . . . .         . . . .

E|------------|
B|------------|
G|------------|
D|-10--10--10-|
A|-8---8---8--|
D|------------|


E|-------------------------------------------------|
B|-------------------------------------------------|
G|-------------------------------------------------|
D|-7---------5-----7---------5-----7---------5-----|
A|-5-0-0-0-0-3-5-6-5-0-0-0-0-3-5-6-5-0-0-0-0-3-5-6-|
D|---0-0-0-0---5-6---0-0-0-0---5-6---0-0-0-0---5-6-|
     . . . .         . . . .         . . . .

E|-------------------------------------|
B|-------------------------------------|
G|-------------------------------------|
D|-------------------------------------|
A|-------------------------------------|
D|-8--8--8--8--8--8--8--8--8--8--8--8--|
   .  .  .  .  .  .  .  .  .  .  .  .

E|-------------------------------------------------|
B|-------------------------------------------------|
G|-------------------------------------------------|
D|-7---------5-----7---------5-----7---------5-----|
A|-5-0-0-0-0-3-5-6-5-0-0-0-0-3-5-6-5-0-0-0-0-3-5-6-|
D|---0-0-0-0---5-6---0-0-0-0---5-6---0-0-0-0---5-6-|
     . . . .         . . . .         . . . .

E|------------|
B|------------|
G|------------|
D|-10--10--10-|
A|-8---8---8--|
D|------------|


[Bridge] 

GTR01:
E|----------|
B|----------|
G|----------|
D|----------|
A|-1--------|
D|---3-4-1\-|


[Breakdown Both GTRs]

E|-------------------------------------------------------------------------|
B|-------------------------------------------------------------------------|
G|-------------------------------------------------------------------------|
D|------------------------3--------------------------------------------3r0-|
A|-1----------1-------1----------1----------1-------1----------1-----------|
D|---3-4-1------3-4-1---3---0------3-4-1------3-4-1---3-4-1------3-4-1-----|
                                                                       *

[Riff A Variation Both GTRs]

E|------------------------------------------------------------|
B|------------------------------------------------------------|
G|------------------------------------------------------------|
D|-7---------------------7------------------------------------|
A|-5-5-6-3----8-3-6-0----5-5-6-3----8-3-6-0---------0---------|
D|---5-6-3----8-3-6-0------5-6-3----8-3-6-0---------0---------|


[Riff B] 

GTR01:
E|-----------------------------------------------------------|
B|-----------------------------------------------------------|
G|-----------------------------------------------------------|
D|-5p3r0-----------------------------------------------------|
A|-------0h3r0-6------------------5p3r0----------------------|
D|---------------6----6-6-6-6-6-6-------3-6-0----0-0-0-0-0-0-|
                      . . . . . .                . . . . . .

E|--------------------------------------------|
B|--------------------------------------------|
G|--------------------------------------------|
D|-5p3r0--------------------------------------|
A|-------0h3r0-6------------------8-3-6-0-----|
D|---------------6----6-6-6-6-6-6-8-3-6-0-----|
                      . . . . . .                

[Riff B] 

GTR02:
E|-----------------------------------------------------------|
B|-----------------------------------------------------------|
G|-----------------------------------------------------------|
D|-----------------------------------------------------------|
A|-----------------------------------------------------------|
D|--------------------6-6-6-6-6-6----------------0-0-0-0-0-0-|
                      . . . . . .                . . . . . .

E|--------------------------------------------|
B|--------------------------------------------|
G|--------------------------------------------|
D|--------------------------------------------|
A|--------------------------------8-3-6-0-----|
D|--------------------6-6-6-6-6-6-8-3-6-0-----|
                      . . . . . .                


[Riff C Both GTRs]

E|-----------------------------------------------------------|
B|-----------------------------------------------------------|
G|-----------------------------------------------------------|
D|-5p3r0-----------------------------------------------------|
A|-------0h3r0-6------------------5p3r0----------------------|
D|---------------6----6-6-6-6-6-6-------3-6-0----0-0-0-0-0-0-|
                      . . . . . .                . . . . . .

E|--------------------------------------------|
B|--------------------------------------------|
G|--------------------------------------------|
D|-5p3r0--------------------------------------|
A|-------0h3r0-6------------------8-3-6-0-----|
D|---------------6----6-6-6-6-6-6-8-3-6-0-----|
                      . . . . . .    
     
E|-----------------------------------------------------------|
B|-----------------------------------------------------------|
G|-----------------------------------------------------------|
D|-5p3r0-----------------------------------------------------|
A|-------0h3r0-6------------------5p3r0----------------------|
D|---------------6----6-6-6-6-6-6-------3-6-0----0-0-0-0-0-0-|
                      . . . . . .                . . . . . .

E|--------------------------------------------|
B|--------------------------------------------|
G|--------------------------------------------|
D|-5p3r0--------------------------------------|
A|-------0h3r0-6------------------8-3-6-0-----|
D|---------------6----6-6-6-6-6-6-8-3-6-0-----|
                      . . . . . .                
       

[Riff D]

GTR01
E|--------------------------------------------------------|
B|--------------------------------------------------------|
G|--------------------------------------------------------|
D|-5p3r0--------------------------------------------------|
A|-------5p3r0-6r0-5p3r0----------------------------------|
D|-----------------------3-6----0-0-0-0-0----0-0-0-0-0----|
                                . . . . .    . . . . .

E|--------------------------------------------------------|
B|--------------------------------------------------------|
G|--------------------------------------------------------|
D|-5p3r0--------------------------------------------------|
A|-------5p3r0-6r0-5p3r0----------------------------------|
D|-----------------------3-6----0---0---0----0---0---0----|
                                .   .   .    .   .   .

E|--------------------------------------------------------|
B|--------------------------------------------------------|
G|--------------------------------------------------------|
D|-5p3r0--------------------------------------------------|
A|-------5p3r0-6r0-5p3r0----------------------------------|
D|-----------------------3-6----0-0-0-0-0----0-0-0-0-0----|
                                . . . . .    . . . . .

E|--------------------------------------------------------|
B|--------------------------------------------------------|
G|--------------------------------------------------------|
D|-5p3r0--------------------------------------------------|
A|-------5p3r0-6r0-5p3r0----------------------------------|
D|-----------------------3-6----0---0---0----0---0---0----|
                                .   .   .    .   .   .

[Riff D] 

GTR02:
E|--------------------------------------------------------|
B|--------------------------------------------------------|
G|--------------------------------------------------------|
D|--------------------------------------------------------|
A|--------------------------------------------------------|
D|------------------------------0-0-0-0-0----0-0-0-0-0----|
                                . . . . .    . . . . .

E|--------------------------------------------------------|
B|--------------------------------------------------------|
G|--------------------------------------------------------|
D|--------------------------------------------------------|
A|--------------------------------------------------------|
D|------------------------------0---0---0----0---0---0----|
                                .   .   .    .   .   .

E|--------------------------------------------------------|
B|--------------------------------------------------------|
G|--------------------------------------------------------|
D|--------------------------------------------------------|
A|--------------------------------------------------------|
D|------------------------------0-0-0-0-0----0-0-0-0-0----|
                                . . . . .    . . . . .

E|-----------------------------------------------------------------|
B|-----------------------------------------------------------------|
G|------------------------------15/18------------------------------|
D|-17p15r0----------------------15/18------------------------------|
A|---------17p15r0-18r0-17p15r0------------------------------------|
D|---------------------------------------0---0---0----0---0---0----|
                                         .   .   .    .   .   .

[Riff E Both GTRs]

E|-----------------------------------------------------|
B|-----------------------------------------------------|
G|-----------------------------------------------------|
D|-----------------------------------------------------|
A|-----------------------------------------------------|
D|-0-0-0-0-0----0---0---0----0-0-0-0-0----0---0---0----|
   . . . . .    .   .   .    . . . . .    .   .   .

E|-----------------------------------------------------|
B|-----------------------------------------------------|
G|-----------------------------------------------------|
D|-----------------------------------------------------|
A|-----------------------------------------------------|
D|-0-0-0-0-0----0---0---0----0-0-0-0-0----0---0---0----|
   . . . . .    .   .   .    . . . . .    .   .   .


[Riff A Variation Both GTRs]

E|------------------------------------------------------------|
B|------------------------------------------------------------|
G|------------------------------------------------------------|
D|-7---------------------------7------------------------------|
A|-5-5-6-3-------8-3-6-0-------5-5-6-3-------8-3-6-0----------|
D|---5-6-3-------8-3-6-0---------5-6-3-------8-3-6-0----------|


[Main Riff Both GTRs]

E|-------------------------------------------------|
B|-------------------------------------------------|
G|-------------------------------------------------|
D|-7---------5-----7---------5-----7---------5-----|
A|-5-0-0-0-0-3-5-6-5-0-0-0-0-3-5-6-5-0-0-0-0-3-5-6-|
D|---0-0-0-0---5-6---0-0-0-0---5-6---0-0-0-0---5-6-|
     . . . .         . . . .         . . . .

E|--------------------------------|
B|--------------------------------|
G|--------------------------------|
D|-10-10-10-10-10-10-10-10-10-10\-|
A|-8--8--8--8--8--8--8--8--8--8-\-|
D|--------------------------------|


************************************

| r  Release
| \  Slide down
| p  Pull-off
| h  Hammer-on
| /  Slide up
|(*) Pinch Harmonic
|(.) Palm Mute  

************************************
Suggest correction
Give kudos to tab author, rate the tab!
1 2 3 4 5
comments
print report bad tab
guest
You may want to rate the tab now too:
select rating
Wanna post a correction for this tab? Suggest correction