Oops, an error
Loading. Please wait.

I Didnt Want To Join Your Stupid Cult Anyway Tab

version 2
version 2

Whole song

130 views 3 this week
no commentswrite comment
1 2 3 4 5
3 more votes to show rating
add to favorites
launch autoscroll
font size
0
reset
how to read this tab
guitar tuner
Autoscroll
slow
fast
+/-
esc
set tempo
stop
Help us to improve Ultimate-Guitar.com Take our survey!
×
Author
Difficulty
Tuning
intermediate
D A D G B E
-------------------------------------------------------------------
  I Didn't Want To Join Your Stupid Cult Anyway – Every Time I Die
-------------------------------------------------------------------
Tabbed by: millarso (Jake Miller)
E-mail: millarso2.0@gmail.com

Tuning: Drop D

Guitar 1: Left Stereo
Guitar 2: Right Stereo

[INTRO]
Guitar 1
E|--------------------------------------|
B|--------------------------------------|
G|-7-----------7-----------7----------7-|
D|-7-----------7-----------7----------7-|
A|-5-----------5-----------5----------5-|
D|--------------------------------------|
||
Guitar 2
E|--------------------------------------|
B|--------------------------------------|
G|-7-----------7-----------7----------7-|
D|-7-----------7-----------7----------7-|
A|-5-00003-----5-00003-----5-00003----5-|
D|---------5-6---------5-6--------5-6---|
     ....        ....        ....

[SECTION 1]
Both Guitars
E|-----------------------------------------------------|
B|-----------------------------------------------------|
G|-7-----------7-----------7---------------------------|
D|-7-----------7-----------7---------------------------|
A|-5-00003-----5-00003-----5-00003----8888888888888888-|
D|---------5-6---------5-6--------5-6------------------|
     ....        ....        ....

E|---------------------------------------------|
B|---------------------------------------------|
G|-7-----------7-----------7----------10-10-10-|
D|-7-----------7-----------7----------10-10-10-|
A|-5-00003-----5-00003-----5-00003-----8--8--8-|
D|---------5-6---------5-6--------5-6----------|
     ....        ....        ....

E|-------------------------------------------------|
B|-------------------------------------------------|
G|-7-----------7-----------7-----------------------|
D|-7-----------7-----------7-----------------------|
A|-5-00003-----5-00003-----5-00003-----------------|
D|---------5-6---------5-6--------5-6-888888888888-|
     ....        ....        ....     ............

E|-------------------------------------------------------------------------|
B|-------------------------------------------------------------------------|
G|-7-----------7-----------7----------10-10-10-10-10-10-10-10-10-10--------|
D|-7-----------7-----------7----------10-10-10-10-10-10-10-10-10-10----10*-|
A|-5-00003-----5-00003-----5-00003-----8--8--8--8--8--8--8--8--8--8-0------|
D|---------5-6---------5-6--------5-6-------------------------------0------|
     ....        ....        ....

[SECTION 2]
Both Guitars
E|-0--------------------------------------|
B|-0--------------------------------------|
G|-0-------------10\----------------------|
D|-0-------------10\-----------------10*\-|
A|-0--------------8\--------------0-------|
D|-0-(bass-riff)------(bass-riff)-0-------|

[SECTION 3]
Both Guitars
E|-----------------------------------------|
B|-----------------------------------------|
G|-7-------------------7---------------5*b-|
D|-7-6-7-3---8-3-6-0---7-6-7-3---8-3-6-----|
A|-5-6-7-3---8-3-6-0---5-6-7-3---8-3-6-----|
D|---6-7-3---8-3-6-0-----6-7-3---8-3-6-----|

E|--------------------------------------------|
B|--------------------------------------------|
G|-7-------------------7----------------------|
D|-7-6-7-3---8-3-6-0---7-6-7-3---8-3-6---3*p0-|
A|-5-6-7-3---8-3-6-0---5-6-7-3---8-3-6-0------|
D|---6-7-3---8-3-6-0-----6-7-3---8-3-6-0------|

[TRANSITION]
Guitar 1
E|----------------------------------------|
B|----------------------------------------|
G|-7-----------7-----------7--------------|
D|-7-----------7-----------7----------7*\-|
A|-5-----------5-----------5--------------|
D|----------------------------------------|
||
Guitar 2
E|--------------------------------------|
B|--------------------------------------|
G|-7-----------7-----------7----------7-|
D|-7-----------7-----------7----------7-|
A|-5-00003-----5-00003-----5-00003----5-|
D|---------5-6---------5-6--------5-6---|
     ....        ....        ....

[SECTION 1B]
Both Guitars
E|-----------------------------------------------------|
B|-----------------------------------------------------|
G|-7-----------7-----------7---------------------------|
D|-7-----------7-----------7---------------------------|
A|-5-00003-----5-00003-----5-00003----8888888888888888-|
D|---------5-6---------5-6--------5-6------------------|
     ....        ....        ....

E|---------------------------------------------|
B|---------------------------------------------|
G|-7-----------7-----------7----------10-10-10-|
D|-7-----------7-----------7----------10-10-10-|
A|-5-00003-----5-00003-----5-00003-----8--8--8-|
D|---------5-6---------5-6--------5-6----------|
     ....        ....        ....

E|-------------------------------------------------|
B|-------------------------------------------------|
G|-7-----------7-----------7-----------------------|
D|-7-----------7-----------7-----------------------|
A|-5-00003-----5-00003-----5-00003-----------------|
D|---------5-6---------5-6--------5-6-888888888888-|
     ....        ....        ....     ............

E|---------------------------------------------|
B|---------------------------------------------|
G|-7-----------7-----------7----------10-10-10-|
D|-7-----------7-----------7----------10-10-10-|
A|-5-00003-----5-00003-----5-00003-----8--8--8-|
D|---------5-6---------5-6--------5-6----------|
     ....        ....        ....

[TRANSITION]
Guitar 1
E|-----------------------|
B|-----------------------|
G|-----------------------|
D|-----------------------|
A|-1---------------------|
D|---3-4-1-(whammy-down)-|

[SECTION 4]
Both Guitars (possibly using an octave pedal down}
E|-----------------------------------------------------------------------|
B|-----------------------------------------------------------------------|
G|-----------------------------------------------------------------------|
D|------------------------3b-0---------------------------------------3p0-|
A|-1---------1--------1------0--1---------1--------1---------1-----------|
D|---3-4-1-----3-4-1----3----0----3-4-1-----3-4-1----3-4-1-----3-4-1-----|
                   .                            .                  .

E|-------------------------------------------------------------------------|
B|-------------------------------------------------------------------------|
G|-7-------------------7--------------------------0------------------------|
D|-7-5-6-3---8-3-6-0---7-5-6-3---8-3-6-0~---------0------------------------|
A|-5-5-6-3---8-3-6-0---5-5-6-3---8-3-6-0~---------0-(whammy-down-and-back)-|
D|---5-6-3---8-3-6-0-----5-6-3---8-3-6-0~---------0------------------------|
                             .
[TRANSITION]
Guitar 1
E|---------------------------------------------------------------------------------|
B|---------------------------------------------------------------------------------|
G|---------------------------------------------------------------------------------|
D|-------------------------------------------------------------------8--3--6--0--0-|
A|-------------------------------------------------------------------8--3--6--0--0-|
D|-----------------666666--------------000000-----------------666666-8--3--6--0--0-|
||                 ......              ......                 ......
Guitar 2
E|---------------------------------------------------------------------------------|
B|---------------------------------------------------------------------------------|
G|---------------------------------------------------------------------------------|
D|-5p3p0--------------------------------------5p3p0------------------8--3--6--0--0-|
A|-------5p3p0-6----------4p3p0---------------------5p3p0-6----------8--3--6--0--0-|
D|---------------6-666666-------3--6-0-000000---------------6-666666-8--3--6--0--0-|
                   ......              ......                 ......

[SECTION 5]
Both Guitars
E|-----------------------------------------------------------------------------------|
B|-----------------------------------------------------------------------------------|
G|-----------------------------------------------------------------------------------|
D|-5p3p0---------------------------------------5p3p0-------------------8--3--6--0--0-|x2
A|-------5p3p0-6p0---------4p3p0---------------------5p3p0-6p0---------8--3--6--0--0-|
D|----------------6-666666-------3--6-0-000000----------------6-666666-8--3--6--0--0-|
                    ......              ......                  ......

[SECTION 6]
Guitar 1
E|----------------------------------------------------------------------------------|
B|----------------------------------------------------------------------------------|
G|----------------------------------------------------------------------------------|
D|----------------------------------------------------------------------------------|
A|-----------------------------00000--00000----------------------------0-0-0--0-0-0-|
D|-----------------------------00000--00000----------------------------0-0-0--0-0-0-|
||                             .....  .....                            . . .  . . .
Guitar 2
E|----------------------------------------------------------------------------------|
B|----------------------------------------------------------------------------------|
G|----------------------------------------------------------------------------------|
D|-5p3p0-------------------------------------5p3p0----------------------------------|
A|-------5p3p0-6p0-4p3p0-------00000--00000-------5p3p0-6p0-4p3p0------0-0-0--0-0-0-|
D|-----------------------3--6--00000--00000----------------------3--6--0-0-0--0-0-0-|
                               .....  .....                            . . .  . . .

Guitar 1
E|------------------------------------------------------------------------------------------|
B|------------------------------------------------------------------------------------------|
G|------------------------------------------------------------------------------------------|
D|------------------------------------------17p15p0---------------------15--18--------------|
A|-----------------------------00000--00000--------17p15p0-18p0-16p15p0-13--16-0-0-0--0-0-0-|
D|-----------------------------00000--00000------------------------------------0-0-0--0-0-0-|
||                             .....  .....                                     . . .  . . .
Guitar 2
E|------------------------------------------------------------------------------------|
B|------------------------------------------------------------------------------------|
G|------------------------------------------------------------------------------------|
D|-5p3p0-------------------------------------5p3p0------------------------------------|
A|-------5p3p0-6p0-4p3p0-------00000--00000--------5p3p0-6p0-4p3p0-------0-0-0--0-0-0-|
D|-----------------------3--6--00000--00000------------------------3--6--0-0-0--0-0-0-|
                               .....  .....                              . . .  . . .

[SECTION 7]
Both Guitars
E|--------------------------------------------------------|
B|--------------------------------------------------------|
G|--------------------------------------------------------|
D|--------------------------------------------------------|
A|-00000--0-0-0--00000--0-0-0--00000--0-0-0--00000--0-0-0-|
D|-00000--0-0-0--00000--0-0-0--00000--0-0-0--00000--0-0-0-|
   .....  . . .  .....  . . .  .....  . . .  .....  . . .

[SECTION 8]
Both Guitars
E|-------------------------------------------------------------------------------|
B|-------------------------------------------------------------------------------|
G|-7-----------------------------------------------------------------------------|
D|-7--5--6--3-------------------------8--3--6--0---------------------------------|
A|-5--5--6--3-------------------------8--3--6--0---------------------------------|
D|----5--6--3-------------------------8--3--6--0---------------------------------|
||
Solo Guitar
E|-------------------------------------------------------------------------------|
B|------------------------------2-4~----------/---10----10--10-13--10--10-10-----|
G|-------------3p1p0------3p0-3-------------------12b14-14--14-14--14--14-14r12~-|
D|------------------3p1p0--------------------------------------------------------|
A|-------------------------------------------------------------------------------|
D|-------------------------------------------------------------------------------|

Both Guitars
E|-------------------------------------------------------------------|
B|-------------------------------------------------------------------|
G|-7-----------------------------------------------------------------|
D|-7--5--6--3-------------------------8--3--6--0--------\\\\\\\\\\\\-|
A|-5--5--6--3-------------------------8--3--6--0--------\pick-slide\-|
D|----5--6--3-------------------------8--3--6--0--------\\\\\\\\\\\\-|
||
Solo Guitar
E|-----------------------------------------6-------------------------|
B|-------------8p6p0----------------9--6------6--9-------------------|
G|------------------7p5p0-8p0-6p5p0-----------------7v---------------|
D|-------------------------------------------------------------------|
A|-------------------------------------------------------------------|
D|-------------------------------------------------------------------|

[OUTRO]
Both Guitars
E|--------------------------------------------------------------------------|
B|--------------------------------------------------------------------------|
G|-7-----5-----7-----5-----7-----5-----10--10--10-10--10--10-10--10--10-10\-|
D|-7-----5-5-6-7-----5-5-6-7-----5-5-6-10--10--10-10--10--10-10--10--10-10\-|
A|-5-00003-5-6-5-00003-5-6-5-00003-5-6--8---8---8--8---8---8--8---8---8--8\-|
D|---0000--5-6---0000--5-6---0000--5-6--------------------------------------|
     ....        ....        ....

END

Some of the quick pinch harmonics and solo riffs might take a little more
discernment, but it should be close. Please rate & comment.

************************************
| .   palm mute (below bar)
| /   slide up
| \   slide down
| h   hammer-on
| p   pull-off
| v   vibrato
| ~   Let note ring
| b   Bend
| r   Return from bend
| *   pinch harmonic

************************************
Suggest correction
Give kudos to tab author, rate the tab!
1 2 3 4 5
comments
print report bad tab
guest
You may want to rate the tab now too:
select rating
Wanna post a correction for this tab? Suggest correction