Oops, an error
Loading. Please wait.

Indian Giver bass

version 1
version 1

Whole song

Interactive

625 views 15 this week
no commentswrite comment
1 2 3 4 5
2 more votes to show rating
add to favorites
×
Save as Personal and add changes to this tab that will be seen only by you. Learn more ›
×
You can save this tab as Personal to edit and correct it or add notes. All changes will be seen only by you. Learn more »
launch autoscroll
font size
0
reset
guitar tuner
edit
Autoscroll
slow
fast
+/-
esc
set tempo
stop
-----------------------------------------------------------------------------
                             INDIAN GIVER - Every Time I Die
-----------------------------------------------------------------------------
Tabbed by: ElSuperSinister (Also known as aka Possy Fresh/ aka Pillsbury Dough Boy)
E-mail: ElSuperSinister@hotmail.ca

Tuning: Standard

(No Broken Hearted People, No Crash, No Flame)
G|---------------------------------------------------------------x2---------|
D|--------------------------------------------------------------------------|
A|--4-44-4-44-555-44-888-55-44-44-4-44-888-1010-999-1313-121212-------------|
E|--------------------------------------------------------------------------|

(Pulled Off The Dark Country Road)
G|---------------------x4---|
D|--------------------------|
A|--0-0-0-6-5-5-------------|
E|--------------------------|

(No Organs To Be Salvaged, No Teeth To Be Compared)
G|---------------------------------------------------------------x2---------|
D|--------------------------------------------------------------------------|
A|--4-44-4-44-555-44-888-55-44-44-4-44-888-1010-999-1313-121212-------------|
E|--------------------------------------------------------------------------|

(Pulled Off The Dark Country Road)
G|---------------------x4---|
D|--------------------------|
A|--0-0-0-6-5-5-------------|
E|--------------------------|

(As Long As Your Name Is On My List Or Your Story Written In The Choruses)
G|------------------------------------||--Lead-Guitar-----------7---------|
D|------------------------5-----------||------7-99----7----7-99---99-7-99-|
A|--00-5-77-00-5~-00-5-77---77-5-77---||--00-------00---00----------------|
E|------------------------------------||----------------------------------|

(So I Make A Vow To Forget You)
G|---------------------x4---|
D|--------------------------|
A|--0-0-0-6-5-5-------------|
E|--------------------------|

Exact Same For Guitar, But Power Chords, At Some Parts.
Suggest correction
Creating personal tab
Creating personal tab
You can edit any tab online and save it as your Personal.

You can edit, replace or remove any tab part or add personal notes – all changes will be seen only by you.

Personal tabs can be accessed anytime from any device, even offline.
Learn more »
Give kudos to tab author, rate the tab!
1 2 3 4 5
comments
print report bad tab
guest
You may want to rate the tab now too:
select rating
Wanna post a correction for this tab? Suggest correction