Oops, an error
Loading. Please wait.

Inrihab tab

version 2
version 2

Whole song

Interactive

11,246 views 6 this week
1 commentread comment
1 2 3 4 5
x 5
add to favorites
×
Save as Personal and add changes to this tab that will be seen only by you. Learn more ›
×
You can save this tab as Personal to edit and correct it or add notes. All changes will be seen only by you. Learn more »
launch autoscroll
font size
0
reset
how to read this tab
guitar tuner
edit
Autoscroll
slow
fast
+/-
esc
set tempo
stop
Drop D Tuning

Don't know the solo yet sorry

Intro
e|--------------------------------------------------------------------------------|
B|--------------------------------------------------------------------------------|
G|--------------------------------------------------------------------------------|
D|-10~~-10~--------------------------------------------------------------10-12b10-|
A|-8~~--8~-------------8------------------8-10-8----------8------8-10-12----------|
D|---------0--10-12-0---12----0-10-12-00---------12-10-12--12-00------------------|
                                      ..                      ..   
Riff 1
e|-------------------------------------------------------------------------------|
B|-------------------------------------------------------------------------------|
G|-------------------------------------------------------------------------------|
D|----------------------------------------------------------------------10-12b10-|
A|-----------------8-------------------8-10-8------------8-------8-10-12---------|
D|-----0--10-12-0---12----0-10-12-00----------12-10-12----12-00------------------|
                                  ..                         ..   
Riff 2
e|---------------------------------------------------------------------|
B|-------------------------------------------------|||-----------------|
G|------------------------------------------(play  vvv the second time)|
D|-----------------------------------666666666---10101010101010--------|
A|---------------------------------5-444444444 -5-8-8-8-8-8-8-8--------|
D|1818-000-151515-000-121212-000---------------------------------------|

Riff 3
e|-------------------------------------------------------|
b|-------------------------------------------------------|
g|-------------------------------------------------------|
d|----0-0-0-------0-0-0-------0-0-0-12-11-11-11-11-11-11-|  Repeat as many
a|----0-0-0-------0-0-0-------0-0-0-12-11-11-11-11-11-11-|  times needed
d|-18-0-0-0-15h18-0-0-0-15h18-0-0-0-12-11-11-11-11-11-11-|

Riff 4
(I don't know the part where Dallas Green sings yet)


Riff 5 (not sure on it...got it from the other guy)
e|-------------------------------------------------|
b|-------------------------------------------------|
g|-------------------------------2-2-2-2-2-2-2-2-2-|
d|-3-3-3-3-3-3-3-3-3-3-3-3-3-3-6-0-0-0-0-0-0-0-0-0-|
a|-3-3-3-3-3-3-3-3-3-3-3-3-3-3-6-0-0-0-0-0-0-0-0-0-|
d|-3-3-3-3-3-3-3-3-3-3-3-3-3-3-6-0-0-0-0-0-0-0-0-0-|

Riff 6
e|---------------------------------------------------------|
B|---------------------------------------------------------|
G|---------------------------------------------------------|
D|--------------------------10-12-10----------------10-----|
A|-----------------8--------8--10-8-----------8-----8-10---|
D|-----0--10-12-0---12---------------12-10-12---12----10---|

Riff 7
e|---------------------------------------------------------|
B|---------------------------------------------------------|
G|---------------------------------------------------------|
D|--------------------------10-12-13----------------10~~---|
A|-----------------8--------8--10-11----------8-----8~~-10-|
D|-----0--10-12-0---12---------------12-10-12---12------10-|

Riff 8
e|-----------------------------------------------------------------------------|
B|-----------------------------------------------------------------------------|
G|-----------------------------------------------------------------------------|
D|------------------------------------10-12-10-----------------------10-12b10--|
A|-----------------8--------------00--8--10-8----------8---00-8-10-12----------|
D|-----0--10-12-0---12----0-10-12-00----------12-10-12--12-00------------------|
       .                  .       ..                       ..
Riff 9
e|-----------------------------------------------------------------------------|
B|-----------------------------------------------------------------------------|
G|-----------------------------------------------------------------------------|
D|------------------------------------10-12-13----------------10---------------|
A|-----------------8--------------00--8--10-11---------8---00-8-10-12----------|
D|-----0--10-12-0---12----0-10-12-00----------12-10-12--12-00---10-12----------|
       .                  .       ..                       ..

Order:
Intro
Riff 1 (x4)
Riff 2
Riff 1 (x2)
Riff 2
Riff 3 (x4)
Riff 4
Riff 5 (x4)
Riff 1 (x2)
Riff 2
Riff 3 (x4)
Riff 6
Riff 7
Riff 8
Riff 9

            
            
Suggest correction
Creating personal tab
Creating personal tab
You can edit any tab online and save it as your Personal.

You can edit, replace or remove any tab part or add personal notes – all changes will be seen only by you.

Personal tabs can be accessed anytime from any device, even offline.
Learn more »
comments
print report bad tab
1 comment total.
-1 reply
JoAllen 414 Feb 04, 2009 04:55 AM

verse should be:
---------------------------------------------
---------------------------------------------
---------------------------------------------
---------------------------------------------
-11-11----------5-8-8-8--------5-4-4---------
---------0-0-0-------------0-0---------0-0-0-

and the rest was correct

guest
Wanna post a correction for this tab? Suggest correction