Oops, an error
Loading. Please wait.

It Remembers Tab

version 2
version 2

Whole song

  • First draft. Corrections are welcome, especially for harmonies.
490 views 18 this week
1 commentread comment
1 2 3 4 5
2 more votes to show rating
add to favorites
launch autoscroll
font size
0
reset
how to read this tab
guitar tuner
Autoscroll
slow
fast
+/-
esc
set tempo
stop
Help us to improve Ultimate-Guitar.com Take our survey!
×
Author
Difficulty
Tuning
intermediate
C G C F A D
About this tab version
First draft. Corrections are welcome, especially for harmonies. Was this info helpful? Yes No
Every Time I Die – It Remembers (2016)

Tuning: Drop C



[Intro] [0:00-0:16]

D|--------------------------------------|
A|--------------------------------------|
F|--------------------------------------|
C|--------------------------------------|
G|----1/8-------1-------8\1-------1-----|
C|-5------0-5-3---5-3-5-----0-3-5----5--|

D|---------------------------------|
A|---------------------------------|
F|-------------------------0-------|
C|---------------------------3br---|
G|-1/8-------1-------8\1-----------|
C|-----0-5-3---5-3-5-----0---------|

D|--------------------------------------------------------|
A|--------------------------------------------------------|
F|--------------------------------------------------------|
C|-5----7-7-7-7-7-7-7-7-7-7-7-7-7-7-7-7-7-7-7-7-7-7-7-7---|
G|-5----5-5-5-5-5-5-5-5-5-5-5-5-4-4-4-4-4-4-4-4-4-4-4-4---|
C|-5------------------------------------------------------| 

[Verse] [0:16-0:46]

D|--------------------------------------|
A|--------------------------------------|
F|--------------------------------------|
C|-----------------------------------5--|
G|----1/8-------1-------8\1-------1--5--|
C|-5------0-5-3---5-3-5-----0-3-5----5--|

D|---------------------------------|
A|---------------------------------|
F|---------------------------------|
C|---------------------------------|
G|-1/8-------1-------8\1-------1---|
C|-----0-5-3---5-3-5-----0-3-5-----|

D|---------------------------------------|
A|---------------------------------------|
F|---------------------------------------|
C|-5----------------------------------5--|
G|-5---1/8-------1-------8\1-------1--5--|
C|-5-------0-5-3---5-3-5-----0-3-5----5--|

D|---------------------------------|
A|---------------------------------|
F|---------------------------------|
C|---------------------------------|
G|-1/8-------1-------8\1-------1---|
C|-----0-5-3---5-3-5-----0-3-5-----|

D|--------------------------------------------------|
A|--------------------------------------------------|
F|--------------------------------------------------|
C|-7-7-7-7-7-7-7-7-7-7-7-7-7-7-7-7-7-7-7-7-7-7-7-7--|
G|-5-5-5-5-5-5-5-5-5-5-5-5-4-4-4-4-4-4-4-4-4-4-4-4--|
C|--------------------------------------------------| 

[Chorus][0:46-1:17]

D|---------------------------------------------|
A|---------------------------------------------|
F|---------------------------------------------|
C|-8-8-8-5/8\5-8-8-8-5p0--8-8-8-5/8\5-8\0-3-5--|
G|-8-8-8-5/8\5-8-8-8-5p0--8-8-8-5/8\5-8\0-3-5--|
C|-8-8-8-5/8\5-8-8-8-5p0--8-8-8-5/8\5-8\0-3-5--|
                                        PM---

D|---------------------------------------------------------|
A|---------------------------------------------------------|
F|---------------------------------------------------------|
C|-8-8-8-5/8\5-8-8-8-5p0--8-8-8-5/8\5-8-7-7-7-7-7-7-0-0-0--|
G|-8-8-8-5/8\5-8-8-8-5p0--8-8-8-5/8\5-8-5-5-5-4-4-4-0-0-0--|
C|-8-8-8-5/8\5-8-8-8-5p0--8-8-8-5/8\5-8-------------0-0-0--| 

D|-------------------------------------------|
A|-------------------------------------------|
F|-------------------------------------------|
C|-5-5-5-3/5\3-5-5-5\3p0--5-5-5-3/5\3-5-0-3--|
G|-5-5-5-3/5\3-5-5-5\3p0--5-5-5-3/5\3-5-0-3--|
C|-5-5-5-3/5\3-5-5-5\3p0--5-5-5-3/5\3-5-0-3--|
                                        PM
D|--------------------------------------------|
A|--------------------------------------------|
F|--------------------------------------------|
C|-5-5-5-3/5\3-5-5-5\3p0--5-5-5-3-0-3-5-7-7---|
G|-5-5-5-3/5\3-5-5-5\3p0--5-5-5-3-0-3-5-5-4---|
C|-5-5-5-3/5\3-5-5-5\3p0--5-5-5-3-0-3-5-----0-|

D|--------------------------------------------------|
A|--------------------------------------------------|
F|--------------------------------------------------|
C|-7-7-7-7-7-7-7-7-7-7-7-7-7-7-7-7-7-7-7-7-7-7-7-7--|
G|-5-5-5-5-5-5-5-5-5-5-5-5-4-4-4-4-4-4-4-4-4-4-4-4--|
C|--------------------------------------------------|

[Verse] [1:17-1:30]

D|--------------------------------|
A|--------------------------------|
F|----------------------------0---|
C|------------------------------3-|
G|----1/8-------1-------8\1-------|
C|-5------0-5-3---5-3-5-----0-----|

D|------------------------------------|
A|------------------------------------|
F|------------------------------------|
C|-5----------------------------------|
G|-5--1/8-------1-------8\1-------1---|
C|-5------0-5-3---5-3-5-----0-3-5-----|

[Bridge] [1:30-1:59]

D|--------------------------------------------------|
A|--------------------------------------------------|
F|--------------------------------------------------|
C|-7-7-7-7-7-7-7-7-7-7-7-7-7-7-7-7-7-7-7-7-7-7-7-7--|
G|-5-5-5-5-5-5-5-5-5-5-5-5-4-4-4-4-4-4-4-4-4-4-4-4--|
C|--------------------------------------------------|

D|-----------------------------------|
A|-----------------------------------|
F|-----------------------------------|
C|-8-8-8-8-8-8-8-8-8-8-8-8----------------3-----|
G|-8-8-8-8-8-8-8-8-8-8-8-8------1---------------|
C|-8-8-8-8-8-8-8-8-8-8-8-8-0h3h5-5p3-0h3h5-3h5--|

D|--------------------------------------------------|
A|--------------------------------------------------|
F|--------------------------------------------------|
C|-7-7-7-7-7-7-7-7-7-7-7-7-7-7-7-7-7-7-7-7-7-7-7-7--|
G|-5-5-5-5-5-5-5-5-5-5-5-5-4-4-4-4-4-4-4-4-4-4-4-4--|
C|--------------------------------------------------|

D|-------------------------|
A|-------------------------|
F|-------------------------|
C|-5-5-3-5-0-3-5-5-3-5-8\--|
G|-5-5-3-5-0-3-5-5-3-5-8\--|
C|-5-5-3-5-0-3-5-5-3-5-8\--|

D|--------------------------------------------------|
A|--------------------------------------------------|
F|--------------------------------------------------|
C|-7-7-7-7-7-7-7-7-7-7-7-7-7-7-7-7-7-7-7-7-7-7-7-7--|
G|-5-5-5-5-5-5-5-5-5-5-5-5-4-4-4-4-4-4-4-4-4-4-4-4--|
C|--------------------------------------------------|

Gtr. 1
D|--------------------------------------------------------------------|
A|-----------------------------------------------------------13-------|
F|-10-10-10-10-10-10-10-10-10-10-10-10-------10--------10-12----10-12-|
C|-8--8--8--8--8--8--8--8--8--8--8--8---10-12--12-10-0----------------|
G|-8--8--8--8--8--8--8--8--8--8--8--8---------------------------------|
C|-8--8--8--8--8--8--8--8--8--8--8--8--0------------------------------|

Gtr. 2 
D|-----------------------------------------------------------|
A|-----------------------------------------------------4-----|
F|-10-10-10-10-10-10-10-10-10-10-10-10-------3------0h3------|
C|-8--8--8--8--8--8--8--8--8--8--8--8---0-3h5-5p3-0-----3h5--|
G|-8--8--8--8--8--8--8--8--8--8--8--8------------------------|
C|-8--8--8--8--8--8--8--8--8--8--8--8------------------------|

D|--------------------------------------------------|
A|--------------------------------------------------|
F|--------------------------------------------------|
C|-7-7-7-7-7-7-7-7-7-7-7-7-7-7-7-7-7-7-7-7-7-7-7-7--|
G|-5-5-5-5-5-5-5-5-5-5-5-5-4-4-4-4-4-4-4-4-4-4-4-4--|
C|--------------------------------------------------|

D|-------------------------|
A|-------------------------|
F|-------------------------|
C|-5-5-3-5-0-3-5-5-3-5-8-8-|
G|-5-5-3-5-0-3-5-5-3-5-8-8-|
C|-5-5-3-5-0-3-5-5-3-5-8-8-|

D|-------------------------|
A|-------------------------|
F|-------------------------|
C|-5-5-3-5-0-3-5-5-3-5-8-8-|
G|-5-5-3-5-0-3-5-5-3-5-8-8-|
C|-5-5-3-5-0-3-5-5-3-5-8-8-|

["I Still Howl" Section][2:00-2:11]

D|-----------------------|
A|-----------------------|
F|-----------------------|
C|-5-5-3-5-0-3-5-5-3-5-8-|
G|-5-5-3-5-0-3-5-5-3-5-8-|
C|-5-5-3-5-0-3-5-5-3-5-8-|

D|------------------------|
A|------------------------|
F|------------------------|
C|-5-5-3-5-0-3-5-5-3-5-10-|
G|-5-5-3-5-0-3-5-5-3-5-10-|
C|-5-5-3-5-0-3-5-5-3-5-10-|

D|-----------------------|
A|-----------------------|
F|-----------------------|
C|-5-5-3-5-0-3-5-5-3-5-8-|
G|-5-5-3-5-0-3-5-5-3-5-8-|
C|-5-5-3-5-0-3-5-5-3-5-8-|

D|-------------------------------|
A|-------------------------------|
F|-------------------------------|
C|-5-5-3-5-0---------------3-----|
G|-5-5-3-5-0-----1---------------|
C|-5-5-3-5-0--3h5-5p3-0-3h5--3h5-|

["I Can't Stand What I've Become" Section][2:12-2:38]

D|-------------------------------------------|
A|-------------------------------------------|
F|-------------------------------------------|
C|-5------3---------3---------3---------3----|
G|-5--------1---------1---------1---------1--|
C|-5----------5---------5---------5----------|

D|--------------------------------------|
A|--------------------------------------|
F|--------------------------------------|
C|-----------------------------------5--|
G|----1/8-------1-------8\1-------1--5--|
C|-5------0-5-3---5-3-5-----0-3-5----5--|

D|--------------------------|
A|--------------------------|
F|--------------------------|
C|--------------------------|
G|-1/8-------1-------8\1----|
C|-----0-5-3---5-3-5-----0--|

[Chorus][2:39-3:10]

D|---------------------------------------------|
A|---------------------------------------------|
F|---------------------------------------------|
C|-8-8-8-5/8\5-8-8-8-5p0--8-8-8-5/8\5-8\0-3-5--|
G|-8-8-8-5/8\5-8-8-8-5p0--8-8-8-5/8\5-8\0-3-5--|
C|-8-8-8-5/8\5-8-8-8-5p0--8-8-8-5/8\5-8\0-3-5--|
                                        PM---

D|---------------------------------------------------------|
A|---------------------------------------------------------|
F|---------------------------------------------------------|
C|-8-8-8-5/8\5-8-8-8-5p0--8-8-8-5/8\5-8-7-7-7-7-7-7-0-0-0--|
G|-8-8-8-5/8\5-8-8-8-5p0--8-8-8-5/8\5-8-5-5-5-4-4-4-0-0-0--|
C|-8-8-8-5/8\5-8-8-8-5p0--8-8-8-5/8\5-8-------------0-0-0--| 

D|-------------------------------------------|
A|-------------------------------------------|
F|-------------------------------------------|
C|-5-5-5-3/5\3-5-5-5\3p0--5-5-5-3/5\3-5-0-3--|
G|-5-5-5-3/5\3-5-5-5\3p0--5-5-5-3/5\3-5-0-3--|
C|-5-5-5-3/5\3-5-5-5\3p0--5-5-5-3/5\3-5-0-3--|
                                        PM
D|--------------------------------------------|
A|--------------------------------------------|
F|--------------------------------------------|
C|-5-5-5-3/5\3-5-5-5\3p0--5-5-5-3-0-3-5-7-7---|
G|-5-5-5-3/5\3-5-5-5\3p0--5-5-5-3-0-3-5-5-4---|
C|-5-5-5-3/5\3-5-5-5\3p0--5-5-5-3-0-3-5-----0-|

D|--------------------------------------------------|
A|--------------------------------------------------|
F|--------------------------------------------------|
C|-7-7-7-7-7-7-7-7-7-7-7-7-7-7-7-7-7-7-7-7-7-7-7-7--|
G|-5-5-5-5-5-5-5-5-5-5-5-5-4-4-4-4-4-4-4-4-4-4-4-4--|
C|--------------------------------------------------|

D|-------------------------------------------------------------------------|
A|-------------------------------------------------------------------------|
F|-19-19-19-19-19-19-19-19-19-19-19-19-18-18-18-18-18-18-18-18-18-18-18-18-|
C|-X--X--X--X--X--X--X--X--X--X--X--X--X--X--X--X--X--X--X--X--X--X--X--X--|
G|-17-17-17-17-17-17-17-17-17-17-17-17-16-16-16-16-16-16-16-16-16-16-16-16-|
C|-------------------------------------------------------------------------|

[Outro][3:10-3:43]

D|--------------------------------------|
A|--------------------------------------|
F|--------------------------------------|
C|-5---3/10-0-5-3-3--5-3-5-10\3-0-3-5-3-|
G|-5---1/8--0-5-3-1--5-3-5-8-\1-0-3-5-1-|
C|-5--------0-5-3----5-3-5------0-3-5---|

D|--------------------------------------|
A|--------------------------------------|
F|--------------------------------------|
C|-5---3/10-0-5-3-3--5-3-5-10\3-0-3-5-3-|
G|-5---1/8--0-5-3-1--5-3-5-8-\1-0-3-5-1-|
C|-5--------0-5-3----5-3-5------0-3-5---|

D|--------|
A|--------|
F|--------|
C|-5--12\-|
G|-5--12\-|
C|-5--12\-|



************************************

| X   Dead note
| h   Hammer-on
| p   Pull-off
| br  Bend release
| /   Slide up
| \   Slide down
| PM  Palm mute

************************************
Suggest correction
Give kudos to tab author, rate the tab!
1 2 3 4 5
comments
print report bad tab
1 comment total.
0 reply
elliottthomas 10 Sep 27, 2016 09:36 PM

["I Still Howl" Section][2:00-2:11]

D|-----------------------|
A|-----------------------|
F|-----------------------|
C|-5-5-3-5-0-3-5-5-3-5-8-|
G|-5-5-3-5-0-3-5-5-3-5-8-|
C|-5-5-3-5-0-3-5-5-3-5-8-|

I think this should be this

D|-----------------------|
A|-----------------------|
F|-----------------------|
C|-5-5-3-5-0-0-5-5-3-5-8-|
G|-5-5-3-5-0-0-5-5-3-5-8-|
C|-5-5-3-5-0-0-5-5-3-5-8-|

guest
You may want to rate the tab now too:
select rating
Wanna post a correction for this tab? Suggest correction