Oops, an error
Loading. Please wait.

Just As Real But Not As Brightly Lit Tab

613 views 75 this week
no commentswrite comment
1 2 3 4 5
x 3
add to favorites
launch autoscroll
font size
0
reset
how to read this tab
guitar tuner
Autoscroll
slow
fast
+/-
esc
set tempo
stop
Help us to improve Ultimate-Guitar.com Take our survey!
×
Author
Difficulty
Tuning
intermediate
C G C F A D
Every Time I Die - Just As Real But Not As Brightly Lit

Album: Low Teens
Tuning: Drop C

[Intro Both GTRs]

D|------------------|-----------------|------------------|-----------------------|
A|------------------|-----------------|------------------|-----------------------|
F|------------------|-----------------|------------------|-----------------------|
C|------------------|-----------------|------------------|-----------------------|
G|-0----3----6------|-3----4----8---7-|-6----3----5------|-4----1----3------1----|
C|-0----3----6---(0)|-3----4----8(0)7-|-6----3----5---(0)|-4----1----3---(0)1----|


D|------------------|-----------------|--------------------|-----------------------|
A|------------------|-----------------|--------------------|-----------------------|
F|------------------|-----------------|--------------------|-----------------------|
C|------------------|-----------------|--------------------|-----------------------|
G|-0----3----6------|-3----4----8---7-|-12----11----8------|-6----3----5-5---------|
C|-0----3----6---(0)|-3----4----8(0)7-|-12----11----8---(0)|-6----3----5-5---------|


[Main Riff A Both GTRs]

D|------------------|-----------------|------------------|-----------------------|
A|------------------|-----------------|------------------|-----------------------|
F|------------------|-----------------|------------------|-----------------------|
C|------------------|-----------------|------------------|-----------------------|
G|-0----3----6------|-3----4----8---7-|-6----3----5------|-4----1----3------1----|
C|-0----3----6---(0)|-3----4----8(0)7-|-6----3----5---(0)|-4----1----3---(0)1----|


D|------------------|-----------------|--------------------|-----------------------|
A|------------------|-----------------|--------------------|-----------------------|
F|------------------|-----------------|--------------------|-----------------------|
C|------------------|-----------------|--------------------|-----------------------|
G|-0----3----6------|-3----4----8---7-|-12----11----8------|-6----3----5------1----|
C|-0----3----6---(0)|-3----4----8(0)7-|-12----11----8---(0)|-6----3----5---(0)1----|


[Main Riff B Both GTRs]

D|-------------------|-------------------|--------------------|-----------------------|
A|-------------------|-------------------|--------------------|-----------------------|
F|-------------------|-------------------|--------------------|-----------------------|
C|-------------------|-------------------|--------------------|-----------------------|
G|-0----3----6-------|-3----4----8-------|-12----11----8------|-6----3----5------1----|
C|-0----3----6-------|-3----4----8-------|-12----11----8---(0)|-6----3----5---(0)1----|


D|---------------------|
A|---------------------|
F|---------------------|
C|-8----3----6----1----|
G|-8----3----6----1----|
C|-8----3----6----1----|


[Hook Both GTRs]

D|---------------------|---------------------|----------------------------|-----------------|
A|---------------------|---------------------|----------------------------|-----------------|
F|---------------------|---------------------|----------------------------|-----------------|
C|---------------------|---------------------|----------------------------|-----------------|
G|---3/5-----3---------|-----------3---------|---8/10------11v------------|-----------------|
C|-0-----6-0---0-3-5-6-|-0-6p3h5-0---1-1-1-0-|-0------12-0-----0-3-5-6----|-8-------3-------|


D|---------------------|---------------------|----------------------------|------------------|
A|---------------------|---------------------|----------------------------|------------------|
F|---------------------|---------------------|----------------------------|------------------|
C|---------------------|---------------------|----------------------------|-----------6------|
G|---3/5-----3---------|-----------3---------|---8/10------11v------------|-----------6------|
C|-0-----6-0---0-3-5-6-|-0-6p3h5-0---1-1-1-0-|-0------12-0-----0-3-5-6----|-8----3----6------|


D|---------------------|---------------------|----------------------------|-----------------|
A|---------------------|---------------------|----------------------------|-----------------|
F|---------------------|---------------------|----------------------------|-----------------|
C|---------------------|---------------------|----------------------------|-----------------|
G|---3/5-----3---------|-----------3---------|---8/10------11v------------|-----------------|
C|-0-----6-0---0-3-5-6-|-0-6p3h5-0---1-1-1-0-|-0------12-0-----0-3-5-6----|-8-------3-------|
                                                                                    *

D|---------------------|---------------------|----------------------------|------------------|
A|---------------------|---------------------|----------------------------|------------------|
F|---------------------|---------------------|----------------------------|------------------|
C|---------------------|---------------------|----------------------------|-8---3---6---1----|
G|---3/5-----3---------|-----------3---------|---8/10------11v------------|-8---3---6---1----|
C|-0-----6-0---0-3-5-6-|-0-6p3h5-0---1-1-1-0-|-0------12-0-----0-3-5-6----|-8---3---6---1----|


[Main Riff C Both GTRs]

D|-------------------|-------------------|--------------------|-----------------------|
A|-------------------|-------------------|--------------------|-----------------------|
F|-------------------|-------------------|--------------------|-----------------------|
C|-------------------|-------------------|--------------------|-----------------------|
G|-0----3----6-------|-3----4----8-------|-12----11----8------|-6----3----5------1----|
C|-0----3----6-------|-3----4----8-------|-12----11----8---(0)|-6----3----5---(0)1----|


D|---------------------------------|
A|---------------------------------|
F|---------------------------------|
C|---------------------------------|
G|---------------------------------|
C|-8-8-8-8-3-3-3-3-6-6-6-6-1-1-1-1-|


[Main Riff A Both GTRs]

D|------------------|-----------------|------------------|-----------------------|
A|------------------|-----------------|------------------|-----------------------|
F|------------------|-----------------|------------------|-----------------------|
C|------------------|-----------------|------------------|-----------------------|
G|-0----3----6------|-3----4----8---7-|-6----3----5------|-4----1----3------1----|
C|-0----3----6---(0)|-3----4----8(0)7-|-6----3----5---(0)|-4----1----3---(0)1----|


D|------------------|-----------------|--------------------|-----------------------|
A|------------------|-----------------|--------------------|-----------------------|
F|------------------|-----------------|--------------------|-----------------------|
C|------------------|-----------------|--------------------|-----------------------|
G|-0----3----6------|-3----4----8---7-|-12----11----8------|-6----3----5------1----|
C|-0----3----6---(0)|-3----4----8(0)7-|-12----11----8---(0)|-6----3----5---(0)1----|


D|------------------|-----------------|------------------|-----------------------|
A|------------------|-----------------|------------------|-----------------------|
F|------------------|-----------------|------------------|-----------------------|
C|------------------|-----------------|------------------|-----------------------|
G|-0----3----6------|-3----4----8---7-|-6----3----5------|-4----1----3------1----|
C|-0----3----6---(0)|-3----4----8(0)7-|-6----3----5---(0)|-4----1----3---(0)1----|


D|------------------|-----------------|--------------------|-----------------------|
A|------------------|-----------------|--------------------|-----------------------|
F|------------------|-----------------|--------------------|-----------------------|
C|------------------|-----------------|--------------------|-----------------------|
G|-0----3----6------|-3----4----8---7-|-12----11----8------|-6----3----5------1----|
C|-0----3----6---(0)|-3----4----8(0)7-|-12----11----8---(0)|-6----3----5---(0)1----|


[Breakdown A GTR 01]

D|-----------------|---------------------|
A|-----------------|---------------------|
F|-----------------|---------------------|
C|-0-0---0-0---0---|-0-0---0-------------|
G|-0-0-8-0-0-8-0-8-|-0-0-8-0-------------|
C|-0-0---0-0---0---|-0-0---0-12----8v----|


D|-----------------|---------------------|
A|-----------------|---------------------|
F|-----------------|---------------------|
C|-0-0---0-0---0---|-0-0---0-------------|
G|-0-0-8-0-0-8-0-8-|-0-0-8-0-------------|
C|-0-0---0-0---0---|-0-0---0-3-5-6-4-3-1-|


[Breakdown A GTR 02]

D|-----------------|---------------------|
A|-----------------|---------------------|
F|-----------------|---------------------|
C|-0-0---0-0---0---|-0-0---0-------------|
G|-0-0---0-0---0---|-0-0---0-12----8v----|
C|-0-0---0-0---0---|-0-0---0-------------|


D|-----------------|---------------------|
A|-----------------|---------------------|
F|-----------------|---------------------|
C|-0-0---0-0---0---|-0-0---0-------------|
G|-0-0---0-0---0---|-0-0---0-------------|
C|-0-0---0-0---0---|-0-0---0-3-5-6-4-3-1-|


[Breakdown B Both GTRs)

D|---------------------|--------------------------|
A|---------------------|--------------------------|
F|---------------------|--------------------------|
C|---------------------|--------------------------|
G|---------------------|--------------------------|
C|-------0-7p5h8-8p5h7-|-0-3-5-6----0-4-3-1-3-1-0-|


D|--------------------------|--------------------------|
A|--------------------------|--------------------------|
F|--------------------------|--------------------------|
C|--------------------------|--------------------------|
G|--------------------------|--------------------------|
C|-10----7----0-7p5h8-8p5h7-|-0-3-5-6----0-4-3-1-3-1-0-|


D|--------------------------|--------------------------|
A|--------------------------|--------------------------|
F|--------------------------|--------------------------|
C|--------------------------|--------------------------|
G|--------------------------|--------------------------|
C|-10----7----0-7p5h8-8p5h7-|-0-3-5-6----0-4-3-1-3-1-0-|


D|--------------------------|--------------------------|
A|--------------------------|--------------------------|
F|--------------------------|--------------------------|
C|--------------------------|--------------------------|
G|--------------------------|--------------------------|
C|-10----7----0-7p5h8-8p5h7-|-0-3-5-6----0-4-3-1-3-1-0-|


D|--------------------------|--------------------------|
A|--------------------------|--------------------------|
F|--------------------------|--------------------------|
C|--------------------------|--------------------------|
G|--------------------------|--------------------------|
C|-10----7----0-7p5h8-8p5h7-|-0-3-5-6----0-4-3-1-3-1-0-|


[Bridge GTR 01]

D|-------------|-------------------|
A|-------------|-------------------|
F|-------------|-------------------|
C|-0-0---0---0-|-0---0-------------|
G|-0-0-8-0-8-0-|-0-8-0-------------|
C|-0-0---0---0-|-0---0-12----8v----|


[Bridge GTR 02]

D|-------------|-------------------|
A|-------------|-------------------|
F|-------------|-------------------|
C|-0-0---0---0-|-0---0-------------|
G|-0-0---0---0-|-0---0-------------|
C|-0-0---0---0-|-0---0-------------|


[Breakdown C GTR 01]

D|-------------|---------------|-------------|-------------------|
A|-------------|---------------|-------------|-------------------|
F|-------------|---------------|-------------|-------------------|
C|-0-0---0---0-|-0-------------|-0-0---0---0-|-0---0-------------|
G|-0-0-8-0-8-0-|-0-8-----------|-0-0-8-0-8-0-|-0-8-0-------------|
C|-0-0---0---0-|-0---7-12-11-8-|-0-0---0---0-|-0---0-3-5-6-4-3-1-|


D|-------------|---------------|-------------|-------------------|
A|-------------|---------------|-------------|-------------------|
F|-------------|---------------|-------------|-------------------|
C|-0-0---0---0-|-0-------------|-0-0---0---0-|-0---0-------------|
G|-0-0-8-0-8-0-|-0-8-----------|-0-0-8-0-8-0-|-0-8-0-------------|
C|-0-0---0---0-|-0---7-12-11-8-|-0-0---0---0-|-0---0-3-5-6-4-3-1-|


[Breakdown C GTR 02]

D|-------------|---------------|-------------|-------------------|
A|-------------|---------------|-------------|-------------------|
F|-------------|---------------|-------------|-------------------|
C|-0-0---0---0-|-0-------------|-0-0---0---0-|-0---0-------------|
G|-0-0-8-0-8-0-|-0-8-----------|-0-0-8-0-8-0-|-0-8-0-------------|
C|-0-0---0---0-|-0---7-12-11-8-|-0-0---0---0-|-0---0-3-5-6-4-3-1-|


D|---------------|----------------|---------------|--------------------|
A|---------------|----------------|---------------|--------------------|
F|---------------|----------------|---------------|--------------------|
C|-0-0----0----0-|-0--------------|-0-0----0----0-|-0----0-------------|
G|-0-0-10-0-10-0-|-0-10-----------|-0-0-10-0-10-0-|-0-10-0-------------|
C|-0-0----0----0-|-0----7-12-11-8-|-0-0----0----0-|-0----0-3-5-6-4-3-1-|


[Breakdown D Both GTRs]

D|-------------------------|---------------------|
A|-------------------------|---------------------|
F|---10-10-10---10---------|---------------------|
C|-0----------0------------|---------------3-4-1-|
G|-0-8--8--8--0-8----------|---------------3-4-1-|
C|-0----------0----7-12-11-|-7h8-8-8-8-8r0-3-4-1-|


D|-------------------------|-----------------|
A|-------------------------|-----------------|
F|---10-10-10---10---------|-----------------|
C|-0----------0------------|-----------------|
G|-0-8--8--8--0-8----------|-----------------|
C|-0----------0----7-12-11-|-8-------3-------|


D|-------------------------|---------------------|
A|-------------------------|---------------------|
F|---10-10-10---10---------|---------------------|
C|-0----------0------------|---------------3-4-1-|
G|-0-8--8--8--0-8----------|---------------3-4-1-|
C|-0----------0----7-12-11-|-7h8-8-8-8-8r0-3-4-1-|


D|-------------------------|---------------------|
A|-------------------------|---------------------|
F|---10-10-10---10---------|---------------------|
C|-0----------0------------|-8----3----6----1----|
G|-0-8--8--8--0-8----------|-8----3----6----1----|
C|-0----------0----7-12-11-|-8----3----6----1----|



[Main Riff C Both GTRs]

D|-------------------|-------------------|--------------------|-----------------------|
A|-------------------|-------------------|--------------------|-----------------------|
F|-------------------|-------------------|--------------------|-----------------------|
C|-------------------|-------------------|--------------------|-----------------------|
G|-0----3----6-------|-3----4----8-------|-12----11----8------|-6----3----5------1----|
C|-0----3----6-------|-3----4----8-------|-12----11----8---(0)|-6----3----5---(0)1----|


D|---------------------------------|
A|---------------------------------|
F|---------------------------------|
C|---------------------------------|
G|---------------------------------|
C|-8-8-8-8-3-3-3-3-6-6-6-6-1-1-1-1-|


[Main Riff A Both GTRs]

D|------------------|-----------------|------------------|-----------------------|
A|------------------|-----------------|------------------|-----------------------|
F|------------------|-----------------|------------------|-----------------------|
C|------------------|-----------------|------------------|-----------------------|
G|-0----3----6------|-3----4----8---7-|-6----3----5------|-4----1----3------1----|
C|-0----3----6---(0)|-3----4----8(0)7-|-6----3----5---(0)|-4----1----3---(0)1----|


D|------------------|-----------------|--------------------|-----------------------|
A|------------------|-----------------|--------------------|-----------------------|
F|------------------|-----------------|--------------------|-----------------------|
C|------------------|-----------------|--------------------|-----------------------|
G|-0----3----6------|-3----4----8---7-|-12----11----8------|-6----3----5------1----|
C|-0----3----6---(0)|-3----4----8(0)7-|-12----11----8---(0)|-6----3----5---(0)1----|


D|------------------|-----------------|------------------|-----------------------|
A|------------------|-----------------|------------------|-----------------------|
F|------------------|-----------------|------------------|-----------------------|
C|------------------|-----------------|------------------|-----------------------|
G|-0----3----6------|-3----4----8---7-|-6----3----5------|-4----1----3------1----|
C|-0----3----6---(0)|-3----4----8(0)7-|-6----3----5---(0)|-4----1----3---(0)1----|


D|------------------|-----------------|--------------------|-----------------------|
A|------------------|-----------------|--------------------|-----------------------|
F|------------------|-----------------|--------------------|-----------------------|
C|------------------|-----------------|--------------------|-----------------------|
G|-0----3----6------|-3----4----8---7-|-12----11----8------|-----------------------|
C|-0----3----6---(0)|-3----4----8(0)7-|-12----11----8------|-----------------------|


[Breakdown E Both GTRs]

D|-----------------|---------------------|
A|-----------------|---------------------|
F|-----------------|---------------------|
C|-0-0---0-0---0---|-0-0---0--noise------|
G|-0-0---0-0---0---|-0-0---0-------------|
C|-0-0---0-0---0---|-0-0---0-------------|
       f     f   f       f   

D|-----------------|---------------------|
A|-----------------|---------------------|
F|-----------------|---------------------|
C|-0-0---0-0---0---|-0-0---0--noise------|
G|-0-0---0-0---0---|-0-0---0-------------|
C|-0-0---0-0---0---|-0-0---0-------------|
       f     f   f       f   

D|-----------------|---------------------|
A|-----------------|---------------------|
F|-----------------|---------------------|
C|-0-0---0-0---0---|-0-0---0--noise------|
G|-0-0---0-0---0---|-0-0---0-------------|
C|-0-0---0-0---0---|-0-0---0-------------|
       f     f   f       f   

D|-----------------|---------------------|
A|-----------------|---------------------|
F|-----------------|---------------------|
C|-0-0---0-0---0---|-0-0---0--noise------|
G|-0-0---0-0---0---|-0-0---0-------------|
C|-0-0---0-0---0---|-0-0---0-------------|
       f     f   f       f   

[Outro GTR 01]

D|-------------|-------------------|
A|-------------|-------------------|
F|-------------|-------------------|
C|-0-0---0---0-|-0---0-------------|
G|-0-0-8-0-8-0-|-0-8-0-------------|
C|-0-0---0---0-|-0---0-------------|


D|-------------|-------------------|
A|-------------|-------------------|
F|-------------|-------------------|
C|-0-0---0---0-|-0---0-------------|
G|-0-0-8-0-8-0-|-0-8-0-------------|
C|-0-0---0---0-|-0---0-------------|


[Outro GTR 02]

D|-------------|-------------------|
A|-------------|-------------------|
F|-------------|-------------------|
C|-0-0---0---0-|-0---0-------------|
G|-0-0---0---0-|-0---0-------------|
C|-0-0---0---0-|-0---0-------------|


D|-------------|-------------------|
A|-------------|-------------------|
F|-------------|-------------------|
C|-0-0---0---0-|-0---0-------------|
G|-0-0---0---0-|-0---0-------------|
C|-0-0---0---0-|-0---0-------------|



(/) Slide Up 
(h) Hammer On
(p) Pull Off
(b) Bend
(r) Release
(v) Vibrato
(*) Pinch Harmonic
( ) Ghost Note
(f) Feedback 





Suggest correction
Give kudos to tab author, rate the tab!
1 2 3 4 5
comments
print report bad tab
guest
You may want to rate the tab now too:
select rating
Wanna post a correction for this tab? Suggest correction