Oops, an error
Loading. Please wait.

Map Change Tab

4,528 views 249 this week
3 commentsread comments
1 2 3 4 5
x 7
add to favorites
launch autoscroll
font size
0
reset
how to read this tab
guitar tuner
Autoscroll
slow
fast
+/-
esc
set tempo
stop
Author
Difficulty
Tuning
intermediate
D A D G B E
About this tab version
Right tuning this time. Done after watching them live. Was this info helpful? Yes No
Album: Low Teens
Tuning: Drop D

Intro Both GTRs:

E|------------------------|------------------------|--------------------------|--------------------------|
B|------------------------|------------------------|--------------------------|--------------------------|
G|-10-10-10-10-10-10-10-10|-10-10-10-10-10-10-10-10|-10-10-10-10----10----10--|--10-10-10-10-10-10-10-10-|
D|-7--7--7--7--7--7--7--7-|-7--7--7--7--7--7--7--7-|-7--7--7--7-----7-----7---|--7--7--7--7--7--7--7--7--|
A|-8--8--8--8--8--8--8--8-|-8--8--8--8--8--8--8--8-|-8--8--8--8-----8-----8---|--8--8--8--8--8--8--8--8--|
D|------------------------|------------------------|-9--9--9--9-----9-----9---|--9--9--9--9--9--9--9--9--|


E|-----------------|-----------------|--------------------|------------------|
B|-----------------|-----------------|--------------------|------------------|
G|-5-5-5-5-5-5-5-5-|-5-5-5-5-5-5-5-5-|-5-5-5-5----5----5--|--5-5-5-5-5-5-5-5-|
D|-7-7-7-7-7-7-7-7-|-7-7-7-7-7-7-7-7-|-7-7-7-7----7----7--|--7-7-7-7-7-7-7-7-|
A|-7-7-7-7-7-7-7-7-|-7-7-7-7-7-7-7-7-|-6-6-6-6----6----6--|--6-6-6-6-6-6-6-6-|
D|-----------------|-----------------|--------------------|------------------|


E|------------------------|------------------------|--------------------------|--------------------------|
B|------------------------|------------------------|--------------------------|--------------------------|
G|-10-10-10-10-10-10-10-10|-10-10-10-10-10-10-10-10|-10-10-10-10----10----10--|--10-10-10-10-10-10-10-10-|
D|-7--7--7--7--7--7--7--7-|-7--7--7--7--7--7--7--7-|-7--7--7--7-----7-----7---|--7--7--7--7--7--7--7--7--|
A|-8--8--8--8--8--8--8--8-|-8--8--8--8--8--8--8--8-|-8--8--8--8-----8-----8---|--8--8--8--8--8--8--8--8--|
D|------------------------|------------------------|-9--9--9--9-----9-----9---|--9--9--9--9--9--9--9--9--|


E|-----------------|-----------------|--------------------------|
B|-----------------|-----------------|--------------------------|
G|-5-5-5-5-5-5-5-5-|-5-5-5-5-5-5-5-5-|--------------------------|
D|-7-7-7-7-7-7-7-7-|-7-7-7-7-7-7-7-7-|-7----7----5----4---------|
A|-7-7-7-7-7-7-7-7-|-7-7-7-7-7-7-7-7-|-7----6----3----2----3-0--|
D|-----------------|-----------------|---------------------3-0--|


Main Riff Both GTRs:

E|------------------------|------------------------|--------------------------|--------------------------|
B|------------------------|------------------------|--------------------------|--------------------------|
G|-10-10-10-10-10-10-10-10|-10-10-10-10-10-10-10-10|-10-10-10-10----10----10--|--10-10-10-10-10-10-10-10-|
D|-7--7--7--7--7--7--7--7-|-7--7--7--7--7--7--7--7-|-7--7--7--7-----7-----7---|--7--7--7--7--7--7--7--7--|
A|-8--8--8--8--8--8--8--8-|-8--8--8--8--8--8--8--8-|-8--8--8--8-----8-----8---|--8--8--8--8--8--8--8--8--|
D|------------------------|------------------------|-9--9--9--9-----9-----9---|--9--9--9--9--9--9--9--9--|


E|-----------------|-----------------|--------------------|------------------|
B|-----------------|-----------------|--------------------|------------------|
G|-5-5-5-5-5-5-5-5-|-5-5-5-5-5-5-5-5-|-5-5-5-5----5----5--|--5-5-5-5-5-5-5-5-|
D|-7-7-7-7-7-7-7-7-|-7-7-7-7-7-7-7-7-|-7-7-7-7----7----7--|--7-7-7-7-7-7-7-7-|
A|-7-7-7-7-7-7-7-7-|-7-7-7-7-7-7-7-7-|-6-6-6-6----6----6--|--6-6-6-6-6-6-6-6-|
D|-----------------|-----------------|--------------------|------------------|


E|------------------------|------------------------|--------------------------|--------------------------|
B|------------------------|------------------------|--------------------------|--------------------------|
G|-10-10-10-10-10-10-10-10|-10-10-10-10-10-10-10-10|-10-10-10-10----10----10--|--10-10-10-10-10-10-10-10-|
D|-7--7--7--7--7--7--7--7-|-7--7--7--7--7--7--7--7-|-7--7--7--7-----7-----7---|--7--7--7--7--7--7--7--7--|
A|-8--8--8--8--8--8--8--8-|-8--8--8--8--8--8--8--8-|-8--8--8--8-----8-----8---|--8--8--8--8--8--8--8--8--|
D|------------------------|------------------------|-9--9--9--9-----9-----9---|--9--9--9--9--9--9--9--9--|


E|-----------------|-----------------|--------------------------|
B|-----------------|-----------------|--------------------------|
G|-5-5-5-5-5-5-5-5-|-5-5-5-5-5-5-5-5-|--------------------------|
D|-7-7-7-7-7-7-7-7-|-7-7-7-7-7-7-7-7-|-7----7----5----4---------|
A|-7-7-7-7-7-7-7-7-|-7-7-7-7-7-7-7-7-|-7----6----3----2----0----|
D|-----------------|-----------------|---------------------0----|


Chorus GTR01:

E|-----------------|-----------------|-----------------|------------------|
B|-----------------|-----------------|---10------------|---8--------------|
G|-----------------|-----------------|------9-------9--|-----7-------7----|
D|---3-------------|---3-------------|--------7---7----|-------5---5------|
A|-----3---7p3-----|-----0---5-3-----|----------8------|---------7--------|
D|-3-----3-----3h5-|-0-----0-----3-5-|-7---------------|-5----------------|


E|------------------|-----------------|------------------|-----------------|
B|------------------|-----------------|---10---------10--|---8-------------|
G|------------------|---------7-5-----|------9-----------|-----7-----------|
D|---3--------------|---3---------3-5-|-7------7---9-----|-5-----5-2---0---|
A|-----3---7b8r7----|-----0-----------|----------8-------|-----------3---3-|
D|-3-----3----------|-0-----0---------|------------------|-----------------|


Chorus GTR02:

E|-----------|-----------|-----------|------------|
B|-----------|-----------|-----------|------------|
G|-----------|-----------|-----------|------------|
D|-3-3-3-3---|-0-0-0-0---|-7-7-7-7---|-5-5-5-5----|
A|-3-3-3-3---|-0-0-0-0---|-7-7-7-7---|-5-5-5-5----|
D|-3-3-3-3---|-0-0-0-0---|-7-7-7-7---|-5-5-5-5----|


E|-----------------|-----------|-----------|------------|
B|-----------------|-----------|-----------|------------|
G|---------4b5r4---|-----------|-----------|------------|
D|-3-3-3-3---------|-0-0-0-0---|-7-7-7-7---|-5-5-5-5----|
A|-3-3-3-3---------|-0-0-0-0---|-7-7-7-7---|-5-5-5-5----|
D|-3-3-3-3---------|-0-0-0-0---|-7-7-7-7---|-5-5-5-5----|


Interlude GTR01:

E|------------------------|------------------------|------------------------|-------------------------|
B|------------------------|------------------------|------------------------|-------------------------|
G|-10-10-10-10-10-10-10-10|-10-10-10-10-10-10-10-10|-10-10-10-10-10-10-10-10|-10-10-10-10-10-10-10-10-|
D|-7--7--7--7--7--7--7--7-|-7--7--7--7--7--7--7--7-|-7--7--7--7--7--7--7--7-|-7--7--7--7--7--7--7--7--|
A|-8--8--8--8--8--8--8--8-|-8--8--8--8--8--8--8--8-|-8--8--8--8--8--8--8--8-|-8--8--8--8--8--8--8--8--|
D|------------------------|------------------------|-9--9--9--9--8--9--9--9-|-9--9--9--9--9--9--9--9--|


E|-----------------|-----------------|-----------------|-----------------|
B|-----------------|-----------------|-----------------|-----------------|
G|-5-5-5-5-5-5-5-5-|-5-5-5-5-5-5-5-5-|-5-5-5-5-5-5-5-5-|-5-5-5-5-5-5-5-5-|
D|-7-7-7-7-7-7-7-7-|-7-7-7-7-7-7-7-7-|-7-7-7-7-7-7-7-7-|-7-7-7-7-7-7-7-7-|
A|-7-7-7-7-7-7-7-7-|-7-7-7-7-7-7-7-7-|-6-6-6-6-6-6-6-6-|-6-6-6-6-6-6-6-6-|
D|-----------------|-----------------|-----------------|-----------------|


Main Riff Variation Both GTRs:

E|------------------------|------------------------|------------------------|-------------------------|
B|------------------------|------------------------|------------------------|-------------------------|
G|-10-10-10-10-10-10-10-10|-10-10-10-10-10-10-10-10|-10-10-10-10-10-10-10-10|-10-10-10-10-10-10-10-10-|
D|-7--7--7--7--7--7--7--7-|-7--7--7--7--7--7--7--7-|-7--7--7--7--7--7--7--7-|-7--7--7--7--7--7--7--7--|
A|-8--8--8--8--8--8--8--8-|-8--8--8--8--8--8--8--8-|-8--8--8--8--8--8--8--8-|-8--8--8--8--8--8--8--8--|
D|------------------------|------------------------|-9--9--9--9--8--9--9--9-|-9--9--9--9--9--9--9--9--|


E|-----------------|-----------------|-----------------|-----------------|
B|-----------------|-----------------|-----------------|-----------------|
G|-5-5-5-5-5-5-5-5-|-5-5-5-5-5-5-5-5-|-5-5-5-5-5-5-5-5-|-5-5-5-5-5-5-5-5-|
D|-7-7-7-7-7-7-7-7-|-7-7-7-7-7-7-7-7-|-7-7-7-7-7-7-7-7-|-7-7-7-7-7-7-7-7-|
A|-7-7-7-7-7-7-7-7-|-7-7-7-7-7-7-7-7-|-6-6-6-6-6-6-6-6-|-6-6-6-6-6-6-6-6-|
D|-----------------|-----------------|-----------------|-----------------|


Riff A GTR01:

E|-----|---------------------------------|----------------------------|
B|-----|---------------------------------|----------------------------|
G|-----|-----0--------0------------------|-----0----------------------|
D|-1h2-|-2-2------2-2------2-2-------1h2-|-2-2------2-2-2-----1-------|
A|-----|-----------------------3-3-3-----|----------------3p0---2p0-3-|
D|-----|---------------------------------|----------------------------|


E|-----|---------------------------------|-------------------------------|
B|-----|---------------------------------|-------------------------------|
G|-----|-----0--------0------------------|-----0-------------------------|
D|-1h2-|-2-2------2-2------2-2-------1h2-|-2-2------2-2-2-----1----------|
A|-----|-----------------------3-3-3-----|----------------3p0---2p0-3----|
D|-----|---------------------------------|-------------------------------|


Riff A GTR02:

E|-----|---------------------------------|----------------------------|
B|-----|---------------------------------|----------------------------|
G|-----|---------------------------------|----------------------------|
D|-1---|-----------------------------1---|--------------2-----1-------|
A|-----|-----------------------3-3-3-----|----------------3p0---2p0-3-|
D|-----|---------------------------------|----------------------------|


E|-----|---------------------------------|-------------------------------|
B|-----|---------------------------------|-------------------------------|
G|-----|---------------------------------|-------------------------------|
D|-1---|-----------------------------1---|--------------2-----1----------|
A|-----|-----------------------3-3-3-----|----------------3p0---2p0-3----|
D|-----|---------------------------------|-------------------------------|


Riff A Both GTRs:

E|-----|---------------------------------|----------------------------|
B|-----|---------------------------------|----------------------------|
G|-----|-----0--------0------------------|-----0----------------------|
D|-1h2-|-2-2------2-2------2-2-------1h2-|-2-2------2-2-2-----1-------|
A|-----|-----------------------3-3-3-----|----------------3p0---2p0-3-|
D|-----|---------------------------------|----------------------------|


E|-----|---------------------------------|-------------------------------|
B|-----|---------------------------------|-------------------------------|
G|-----|-----0--------0------------------|-----0-------------------------|
D|-1h2-|-2-2------2-2------2-2-------1h2-|-2-2------2-2-2-----1----------|
A|-----|-----------------------3-3-3-----|----------------3p0---2p0-3----|
D|-----|---------------------------------|-------------------------------|


Breakdown Both GTRs:

E|---------------------------------|---------------------------------|
B|---------------------------------|---------------------------------|
G|---------------------------------|---------------------------------|
D|---------------------------------|---------------------------------|
A|---3-0---3-0---3-0---3-0---3-0---|-----2-----2-0---2-0---2-0---2-0-|
D|-2-----2-----2-----2-----2-----2-|-0-2---0-2-----2-----2-----2-----|


E|---------------------------------|--------------------------|
B|---------------------------------|--------------------------|
G|-----------------------------1---|--------------------------|
D|---------1---------------3p0-2---|-5----5----5----4----3----|
A|---3-0---0-2-3-----3-0-----------|-7----6----3----2----3----|
D|-2-----2-------2-3-----3---------|---------------------3----|


E|---------------------------------|---------------------------------|
B|---------------------------------|---------------------------------|
G|---------------------------------|---------------------------------|
D|---------------------------------|---------------------------------|
A|---3-0---3-0---3-0---3-0---3-0---|-----2-----2-0---2-0---2-0---2-0-|
D|-2-----2-----2-----2-----2-----2-|-0-2---0-2-----2-----2-----2-----|


E|---------------------------------|--------------------------|
B|---------------------------------|--------------------------|
G|-----------------------------1---|--------------------------|
D|---------1---------------3p0-2---|-5----5----5----4----3-0--|
A|---3-0---0-2-3-----3-0-----------|-7----6----3----2----3-0--|
D|-2-----2-------2-3-----3---------|---------------------3-0--|

E|---------------------------|
B|---------------------------|
G|---------------------------|
D|-5----5----5----4----10----|
A|-7----6----3----2----8-----|
D|---------------------------|


Main Riff Variation Both GTRs:

E|------------------------|------------------------|------------------------|-------------------------|
B|------------------------|------------------------|------------------------|-------------------------|
G|-10-10-10-10-10-10-10-10|-10-10-10-10-10-10-10-10|-10-10-10-10-10-10-10-10|-10-10-10-10-10-10-10-10-|
D|-7--7--7--7--7--7--7--7-|-7--7--7--7--7--7--7--7-|-7--7--7--7--7--7--7--7-|-7--7--7--7--7--7--7--7--|
A|-8--8--8--8--8--8--8--8-|-8--8--8--8--8--8--8--8-|-8--8--8--8--8--8--8--8-|-8--8--8--8--8--8--8--8--|
D|------------------------|------------------------|-9--9--9--9--8--9--9--9-|-9--9--9--9--9--9--9--9--|


E|-----------------|-----------------|-----------------|-----------------|
B|-----------------|-----------------|-----------------|-----------------|
G|-5-5-5-5-5-5-5-5-|-5-5-5-5-5-5-5-5-|-5-5-5-5-5-5-5-5-|-5-5-5-5-5-5-5-5-|
D|-7-7-7-7-7-7-7-7-|-7-7-7-7-7-7-7-7-|-7-7-7-7-7-7-7-7-|-7-7-7-7-7-7-7-7-|
A|-7-7-7-7-7-7-7-7-|-7-7-7-7-7-7-7-7-|-6-6-6-6-6-6-6-6-|-6-6-6-6-6-6-6-6-|
D|-----------------|-----------------|-----------------|-----------------|


E|------------------------|------------------------|------------------------|-------------------------|
B|------------------------|------------------------|------------------------|-------------------------|
G|-10-10-10-10-10-10-10-10|-10-10-10-10-10-10-10-10|-10-10-10-10-10-10-10-10|-10-10-10-10-10-10-10-10-|
D|-7--7--7--7--7--7--7--7-|-7--7--7--7--7--7--7--7-|-7--7--7--7--7--7--7--7-|-7--7--7--7--7--7--7--7--|
A|-8--8--8--8--8--8--8--8-|-8--8--8--8--8--8--8--8-|-8--8--8--8--8--8--8--8-|-8--8--8--8--8--8--8--8--|
D|------------------------|------------------------|-9--9--9--9--8--9--9--9-|-9--9--9--9--9--9--9--9--|


E|-----------------|-----------------|-------------------------|
B|-----------------|-----------------|-------------------------|
G|-5-5-5-5-5-5-5-5-|-5-5-5-5-5-5-5-5-|-------------------------|
D|-7-7-7-7-7-7-7-7-|-7-7-7-7-7-7-7-7-|-7----7----5----4--------|
A|-7-7-7-7-7-7-7-7-|-7-7-7-7-7-7-7-7-|-7----6----3----2--------|
D|-----------------|-----------------|--------------------3b---|


Riff A Both GTRs:

E|-----|---------------------------------|----------------------------|
B|-----|---------------------------------|----------------------------|
G|-----|-----0--------0------------------|-----0----------------------|
D|-1h2-|-2-2------2-2------2-2-------1h2-|-2-2------2-2-2-----1-------|
A|-----|-----------------------3-3-3-----|----------------3p0---2p0-3-|
D|-----|---------------------------------|----------------------------|


E|-----|---------------------------------|----------------------------|
B|-----|---------------------------------|----------------------------|
G|-----|-----0--------0------------------|-----0----------------------|
D|-1h2-|-2-2------2-2------2-2-------1h2-|-2-2------2-2-2-----1-------|
A|-----|-----------------------3-3-3-----|----------------3p0---2p0-3-|
D|-----|---------------------------------|----------------------------|


E|-----|---------------------------------|----------------------------|
B|-----|---------------------------------|----------------------------|
G|-----|-----0--------0------------------|-----0----------------------|
D|-1h2-|-2-2------2-2------2-2-------1h2-|-2-2------2-2-2-----1-------|
A|-----|-----------------------3-3-3-----|----------------3p0---2p0-3-|
D|-----|---------------------------------|----------------------------|


E|-----|---------------------------------|----------------------------|
B|-----|---------------------------------|----------------------------|
G|-----|-----0--------0------------------|-----0----------------------|
D|-1h2-|-2-2------2-2------2-2-------1h2-|-2-2------2-2-2-----1-------|
A|-----|-----------------------3-3-3-----|----------------3p0---2p0-3-|
D|-----|---------------------------------|----------------------------|


Pre-Chorus Both GTRs:

E|-----------------|-----------------|-----------------|-----------------|
B|-----------------|-----------------|-----------------|-----------------|
G|-----------------|-----------------|-----------------|-----------------|
D|-3-3-3-3-3-3-3-3-|-0-0-0-0-0-0-0-0-|-7-7-7-7-7-7-7-7-|-5-5-5-5-5-5-5-5-|
A|-3-3-3-3-3-3-3-3-|-0-0-0-0-0-0-0-0-|-7-7-7-7-7-7-7-7-|-5-5-5-5-5-5-5-5-|
D|-3-3-3-3-3-3-3-3-|-0-0-0-0-0-0-0-0-|-7-7-7-7-7-7-7-7-|-5-5-5-5-5-5-5-5-|


E|-----------------|-----------------|-----------------|-----------------|
B|-----------------|-----------------|-----------------|-----------------|
G|-----------------|-----------------|-----------------|-----------------|
D|-3-3-3-3-3-3-3-3-|-0-0-0-0-0-0-0-0-|-7-7-7-7-7-7-7-7-|-5---5---5-------|
A|-3-3-3-3-3-3-3-3-|-0-0-0-0-0-0-0-0-|-7-7-7-7-7-7-7-7-|-5---5---5-------|
D|-3-3-3-3-3-3-3-3-|-0-0-0-0-0-0-0-0-|-7-7-7-7-7-7-7-7-|-5---5---5-------|


Bridge GTR01:

E|---------|
B|---------|
G|---------|
D|-2---0---|
A|---3---3-|
D|---------|


Chorus GTR01:

E|-----------------|-----------------|------------------|------------------|
B|-----------------|-----------------|---10-------------|---8--------------|
G|-----------------|-----------------|------9-------10--|-----7-------7----|
D|---3-------------|---3-------------|--------7---7-----|-------5---5------|
A|-----3---7p3-----|-----0---5-3-----|----------8-------|---------7--------|
D|-3-----3-----3h5-|-0-----0-----3-5-|-7----------------|-5----------------|


E|------------------|-----------------|------------------|-----------------|
B|------------------|-----------------|---10---------10--|---8-------------|
G|------------------|---------7-5-----|------9-----------|-----7-----------|
D|---3--------------|---3---------3-5-|-7------7---9-----|-5-----5-2---0---|
A|-----3---7b8r7----|-----0-----------|----------8-------|-----------3---3-|
D|-3-----3----------|-0-----0---------|------------------|-----------------|


E|-----------------|-----------------|------------------|------------------|
B|-----------------|-----------------|---10-------------|---8--------------|
G|-----------------|-----------------|------9-------10--|-----7-------7----|
D|---3-------------|---3-------------|--------7---7-----|-------5---5------|
A|-----3---7p3-----|-----0---5-3-----|----------8-------|---------7--------|
D|-3-----3-----3h5-|-0-----0-----3-5-|-7----------------|-5----------------|


E|------------------|-----------------|------------------|-----------------|
B|------------------|-----------------|---10---------10--|---8-------------|
G|------------------|---------7-5-----|------9-----------|-----7-----------|
D|---3--------------|---3---------3-5-|-7------7---9-----|-5-----5-2---0---|
A|-----3---7b8r7----|-----0-----------|----------8-------|-----------3---3-|
D|-3-----3----------|-0-----0---------|------------------|-----------------|


Chorus GTR02:

E|-----------|-----------|-----------|------------|
B|-----------|-----------|-----------|------------|
G|-----------|-----------|-----------|------------|
D|-3-3-3-3---|-0-0-0-0---|-7-7-7-7---|-5-5-5-5----|
A|-3-3-3-3---|-0-0-0-0---|-7-7-7-7---|-5-5-5-5----|
D|-3-3-3-3---|-0-0-0-0---|-7-7-7-7---|-5-5-5-5----|


E|-----------|-----------|-----------|------------|
B|-----------|-----------|-----------|------------|
G|-----------|-----------|-----------|------------|
D|-3-3-3-3---|-0-0-0-0---|-7-7-7-7---|-5-5-5-5----|
A|-3-3-3-3---|-0-0-0-0---|-7-7-7-7---|-5-5-5-5----|
D|-3-3-3-3---|-0-0-0-0---|-7-7-7-7---|-5-5-5-5----|


E|-----------|-----------|-----------|------------|
B|-----------|-----------|-----------|------------|
G|-----------|-----------|-----------|------------|
D|-3-3-3-3---|-0-0-0-0---|-7-7-7-7---|-5-5-5-5----|
A|-3-3-3-3---|-0-0-0-0---|-7-7-7-7---|-5-5-5-5----|
D|-3-3-3-3---|-0-0-0-0---|-7-7-7-7---|-5-5-5-5----|


E|-----------------|-----------|-----------|------------|
B|-----------------|-----------|-----------|------------|
G|---------4b5r4---|-----------|-----------|------------|
D|-3-3-3-3---------|-0-0-0-0---|-7-7-7-7---|-5-5-5-5----|
A|-3-3-3-3---------|-0-0-0-0---|-7-7-7-7---|-5-5-5-5----|
D|-3-3-3-3---------|-0-0-0-0---|-7-7-7-7---|-5-5-5-5----|


Chorus Variation GTR01:

E|-----------------|-----------------|------------------|------------------|
B|-----------------|-----------------|---10-------------|---8--------------|
G|-----------------|-----------------|------9-------10--|-----7-------7----|
D|---3-------------|---3-------------|--------7---7-----|-------5---5------|
A|-----3---7p3-----|-----0---5-3-----|----------8-------|---------7--------|
D|-3-----3-----3h5-|-0-----0-----3-5-|-7----------------|-5----------------|


E|------------------|-----------------|------------------|-----------------|
B|------------------|-----------------|---10---------10--|---8-------------|
G|------------------|---------7-5-----|------9-----------|-----7-----------|
D|---3--------------|---3---------3-5-|-7------7---9-----|-5-----5-2---0---|
A|-----3---7b8r7----|-----0-----------|----------8-------|-----------3---3-|
D|-3-----3----------|-0-----0---------|------------------|-----------------|


E|-----------------|-----------------|------------------|------------------|
B|-----------------|-----------------|---10-------------|---8--------------|
G|-----------------|-----------------|------9-------10--|-----7-------7----|
D|---3-------------|---3-------------|--------7---7-----|-------5---5------|
A|-----3---7p3-----|-----0---5-3-----|----------8-------|---------7--------|
D|-3-----3-----3h5-|-0-----0-----3-5-|-7----------------|-5----------------|


E|------------------|-----------------|------------------|-----------------|
B|------------------|-----------------|---10---------10--|---8-------------|
G|------------------|---------7-5-----|------9-----------|-----7-----------|
D|---3--------------|---3---------3-5-|-7------7---9-----|-5-----5-2---0---|
A|-----3---7b8r7----|-----0-----------|----------8-------|-----------3---3-|
D|-3-----3----------|-0-----0---------|------------------|-----------------|


Chorus  Variation GTR02:

E|-----------|-----------|-----------|------------|
B|-----------|-----------|-----------|------------|
G|-----------|-----------|-----------|------------|
D|-----------|-----------|-----------|------------|
A|-----------|-----------|-----------|------------|
D|-3~--------|-0~--------|-7~--------|-5~---------|


E|-----------|-----------|-----------|------------|
B|-----------|-----------|-----------|------------|
G|-----------|-----------|-----------|------------|
D|-----------|-----------|-----------|------------|
A|-----------|-----------|-----------|------------|
D|-3~--------|-0~--------|-7~--------|-5~---------|


E|-----------------|-----------------|-----------------|-----------------|
B|-----------------|-----------------|-----------------|-----------------|
G|-----------------|-----------------|-----------------|-----------------|
D|-3-3-3-3-3-3-3-3-|-0-0-0-0-0-0-0-0-|-7-7-7-7-7-7-7-7-|-5-5-5-5-5-5-5-5-|
A|-3-3-3-3-3-3-3-3-|-0-0-0-0-0-0-0-0-|-7-7-7-7-7-7-7-7-|-5-5-5-5-5-5-5-5-|
D|-3-3-3-3-3-3-3-3-|-0-0-0-0-0-0-0-0-|-7-7-7-7-7-7-7-7-|-5-5-5-5-5-5-5-5-|
   . . . . . . . .   . . . . . . . .   . . . . . . . .   . . . . . . . .


E|-----------------|-----------------|-----------------|-----------------|
B|-----------------|-----------------|-----------------|-----------------|
G|-----------------|-----------------|-----------------|-----------------|
D|-3-3-3-3-3-3-3-3-|-0-0-0-0-0-0-0-0-|-7-7-7-7-7-7-7-7-|-5-5-5-5-5-5-5-5-|
A|-3-3-3-3-3-3-3-3-|-0-0-0-0-0-0-0-0-|-7-7-7-7-7-7-7-7-|-5-5-5-5-5-5-5-5-|
D|-3-3-3-3-3-3-3-3-|-0-0-0-0-0-0-0-0-|-7-7-7-7-7-7-7-7-|-5-5-5-5-5-5-5-5-|
   . . . . . . . .   . . . . . . . .   . . . . . . . .   . . . . . . . .

Outro GTR01:

E|-----------------|-----------------|------------------|------------------|
B|-----------------|-----------------|---10-------------|---8--------------|
G|-----------------|-----------------|------9-------10--|-----7-------7----|
D|---3-------------|---3-------------|--------7---7-----|-------5---5------|
A|-----3---7p3-----|-----0---5-3-----|----------8-------|---------7--------|
D|-3-----3-----3h5-|-0-----0-----3-5-|-7----------------|-5----------------|


E|------------------|-----------------|------------------|-----------------|
B|------------------|-----------------|---10---------10--|---8-------------|
G|------------------|---------7-5-----|------9-----------|-----7-----------|
D|---3--------------|---3---------3-5-|-7------7---9-----|-5-----5-2---0---|
A|-----3---7b8r7----|-----0-----------|----------8-------|-----------3---3-|
D|-3-----3----------|-0-----0---------|------------------|-----------------|


E|-----------------|-----------------|------------------|------------------|
B|-----------------|-----------------|---10-------------|---8--------------|
G|-----------------|-----------------|------9-------10--|-----7-------7----|
D|---3-------------|---3-------------|--------7---7-----|-------5---5------|
A|-----3---7p3-----|-----0---5-3-----|----------8-------|---------7--------|
D|-3-----3-----3h5-|-0-----0-----3-5-|-7----------------|-5----------------|


E|------------------|-----------------|------------------|-----------------|
B|------------------|-----------------|---10---------10--|---8-------------|
G|------------------|---------7-5-----|------9-----------|-----7-----------|
D|---3--------------|---3---------3-5-|-7------7---9-----|-5-----5-2---0---|
A|-----3---7b8r7----|-----0-----------|----------8-------|-----------3---3-|
D|-3-----3----------|-0-----0---------|------------------|-----------------|


(/) Slide Up  (\) Slide Down  (h) Hammer On  (p) Pull Off  (b) Bend (~) Hold (.) Palm Mute

Suggest correction
comments
print report bad tab
3 comments total.
0 reply
antivyel1337 10 Oct 04, 2016 05:38 PM

Thanks so much!

0 reply
rancetatroe1 10 Dec 30, 2016 05:05 PM

Paul! You're great! Just wondering if you have plans to put the tabs up in drop C?

guest
You may want to rate the tab now too:
select rating
Wanna post a correction for this tab? Suggest correction