Oops, an error
Loading. Please wait.

Map Change Tab

1,075 views 39 this week
1 commentread comment
1 2 3 4 5
x 4
add to favorites
launch autoscroll
font size
0
reset
how to read this tab
guitar tuner
Autoscroll
slow
fast
+/-
esc
set tempo
stop
Help us to improve Ultimate-Guitar.com Take our survey!
×
Author
Difficulty
Tuning
intermediate
C G C F A D
Every Time I Die – Map Change

Album: Low Teens
Tuning: Drop C

Intro Both GTRs:

D|----------------------------------------------------------------------------------------------------|
A|----------------------------------------------------------------------------------------------------|
F|-12-12-12-12-12-12-12-12-12-12-12-12-12-12-12-12-12-12-12-12----12----12----12-12-12-12-12-12-12-12-|
C|-9--9--9--9--9--9--9--9--9--9--9--9--9--9--9--9--9--9--9--9-----9-----9-----9--9--9--9--9--9--9--9--|
G|-10-10-10-10-10-10-10-10-10-10-10-10-10-10-10-10-10-10-10-10----10----10----10-10-10-10-10-10-10-10-|
C|-------------------------------------------------11-11-11-11----11----11----11-11-11-11-11-11-11-11-|


D|----------------------------------------------------------------------|
A|----------------------------------------------------------------------|
F|-7-7-7-7-7-7-7-7-7-7-7-7-7-7-7-7-7-7-7-7----7----7----7-7-7-7-7-7-7-7-|
C|-9-9-9-9-9-9-9-9-9-9-9-9-9-9-9-9-9-9-9-9----9----9----9-9-9-9-9-9-9-9-|
G|-9-9-9-9-9-9-9-9-9-9-9-9-9-9-9-9-8-8-8-8----8----8----8-8-8-8-8-8-8-8-|
C|----------------------------------------------------------------------|


D|----------------------------------------------------------------------------------------------------|
A|----------------------------------------------------------------------------------------------------|
F|-12-12-12-12-12-12-12-12-12-12-12-12-12-12-12-12-12-12-12-12----12----12----12-12-12-12-12-12-12-12-|
C|-9--9--9--9--9--9--9--9--9--9--9--9--9--9--9--9--9--9--9--9-----9-----9-----9--9--9--9--9--9--9--9--|
G|-10-10-10-10-10-10-10-10-10-10-10-10-10-10-10-10-10-10-10-10----10----10----10-10-10-10-10-10-10-10-|
C|-------------------------------------------------11-11-11-11----11----11----11-11-11-11-11-11-11-11-|


D|------------------------------------------------------|
A|------------------------------------------------------|
F|-7-7-7-7-7-7-7-7-7-7-7-7-7-7--------------------------|
C|-9-9-9-9-9-9-9-9-9-9-9-9-9-9-9----9----7----6---------|
G|-9-9-9-9-9-9-9-9-9-9-9-9-9-9-9----8----5----4----5-2--|
C|-------------------------------------------------5-2--|


Main Riff Both GTRs:

D|----------------------------------------------------------------------------------------------------|
A|----------------------------------------------------------------------------------------------------|
F|-12-12-12-12-12-12-12-12-12-12-12-12-12-12-12-12-12-12-12-12----12----12----12-12-12-12-12-12-12-12-|
C|-9--9--9--9--9--9--9--9--9--9--9--9--9--9--9--9--9--9--9--9-----9-----9-----9--9--9--9--9--9--9--9--|
G|-10-10-10-10-10-10-10-10-10-10-10-10-10-10-10-10-10-10-10-10----10----10----10-10-10-10-10-10-10-10-|
C|-------------------------------------------------11-11-11-11----11----11----11-11-11-11-11-11-11-11-|


D|----------------------------------------------------------------------|
A|----------------------------------------------------------------------|
F|-7-7-7-7-7-7-7-7-7-7-7-7-7-7-7-7-7-7-7-7----7----7----7-7-7-7-7-7-7-7-|
C|-9-9-9-9-9-9-9-9-9-9-9-9-9-9-9-9-9-9-9-9----9----9----9-9-9-9-9-9-9-9-|
G|-9-9-9-9-9-9-9-9-9-9-9-9-9-9-9-9-8-8-8-8----8----8----8-8-8-8-8-8-8-8-|
C|----------------------------------------------------------------------|


D|----------------------------------------------------------------------------------------------------|
A|----------------------------------------------------------------------------------------------------|
F|-12-12-12-12-12-12-12-12-12-12-12-12-12-12-12-12-12-12-12-12----12----12----12-12-12-12-12-12-12-12-|
C|-9--9--9--9--9--9--9--9--9--9--9--9--9--9--9--9--9--9--9--9-----9-----9-----9--9--9--9--9--9--9--9--|
G|-10-10-10-10-10-10-10-10-10-10-10-10-10-10-10-10-10-10-10-10----10----10----10-10-10-10-10-10-10-10-|
C|-------------------------------------------------11-11-11-11----11----11----11-11-11-11-11-11-11-11-|


D|------------------------------------------------------|
A|------------------------------------------------------|
F|-7-7-7-7-7-7-7-7-7-7-7-7-7-7--------------------------|
C|-9-9-9-9-9-9-9-9-9-9-9-9-9-9-9----9----7----6---------|
G|-9-9-9-9-9-9-9-9-9-9-9-9-9-9-9----8----5----4----2----|
C|-------------------------------------------------2----|


Chorus GTR01:

D|-------------------------------------------------------------------|
A|-------------------------------12------------------10--------------|
F|---0-------------0-------------------------11-----------------9----|
C|-----0-4r0---------0-2-0----------9------0------------7-----0------|
G|------------------------------------9-10----------------7-9--------|
C|-5---------5h7-2---------5-7-9-------------------7-----------------|


D|----------------------------------------------------------------------|
A|----------------------------------12-----------12------10-------------|
F|---0--------------0-----9-7-0--------11-------------------9-----------|
C|-----0-4b5-4--------0---------7/9-------9----9-------7------7---0-----|
G|------------------------------------------10------------------9---7\5-|
C|-5--------------2-----2-----------------------------------------------|


Chorus GTR02:

D|---------------------------------------------|
A|---------------------------------------------|
F|---------------------------------------------|
C|-5-5-5-5----2-2-2-2----9-9-9-9----7-7-7-7----|
G|-5-5-5-5----2-2-2-2----9-9-9-9----7-7-7-7----|
C|-5-5-5-5----2-2-2-2----9-9-9-9----7-7-7-7----|


D|---------------------------------------------------|
A|---------------------------------------------------|
F|---------6b7-6-------------------------------------|
C|-5-5-5-5----------2-2-2-2----9-9-9-9----7-7-7-7----|
G|-5-5-5-5----------2-2-2-2----9-9-9-9----7-7-7-7----|
C|-5-5-5-5----------2-2-2-2----9-9-9-9----7-7-7-7----|


Interlude GTR01:

D|-------------------------------------------------------------------------------------------------|
A|-------------------------------------------------------------------------------------------------|
F|-12-12-12-12-12-12-12-12-12-12-12-12-12-12-12-12-12-12-12-12-12-12-12-12-12-12-12-12-12-12-12-12-|
C|-9--9--9--9--9--9--9--9--9--9--9--9--9--9--9--9---9--9--9--9--9--9--9--9--9--9--9--9--9--9--9--9-|
G|-10-10-10-10-10-10-10-10-10-10-10-10-10-10-10-10-10-10-10-10-10-10-10-10-10-10-10-10-10-10-10-10-|
C|-------------------------------------------------11-11-11-11-11-11-11-11-11-11-11-11-11-11-11-11-|


D|-----------------------------------------------------------------------|
A|-----------------------------------------------------------------------|
F|-7-7-7-7-7-7-7-7-7-7-7-7-7-7-7-7-7-7-7-7-7-7-7-7-7-7-7-7-7-7-7-7-7-7-7-|
C|-9-9-9-9-9-9-9-9-9-9-9-9-9-9-9-9-9-9-9-9-9-9-9-9-9-9-9-9-9-9-9-9-9-9-9-|
G|-9-9-9-9-9-9-9-9-9-9-9-9-9-9-9-9-8-8-8-8-8-8-8-8-8-8-8-8-8-8-8-8-8-8-8-|
C|-----------------------------------------------------------------------|


Main Riff Variation Both GTRs:

D|-------------------------------------------------------------------------------------------------|
A|-------------------------------------------------------------------------------------------------|
F|-12-12-12-12-12-12-12-12-12-12-12-12-12-12-12-12-12-12-12-12-12-12-12-12-12-12-12-12-12-12-12-12-|
C|-9--9--9--9--9--9--9--9--9--9--9--9--9--9--9--9---9--9--9--9--9--9--9--9--9--9--9--9--9--9--9--9-|
G|-10-10-10-10-10-10-10-10-10-10-10-10-10-10-10-10-10-10-10-10-10-10-10-10-10-10-10-10-10-10-10-10-|
C|-------------------------------------------------11-11-11-11-11-11-11-11-11-11-11-11-11-11-11-11-|


D|-----------------------------------------------------------------------|
A|-----------------------------------------------------------------------|
F|-7-7-7-7-7-7-7-7-7-7-7-7-7-7-7-7-7-7-7-7-7-7-7-7-7-7-7-7-7-7-7-7-7-7-7-|
C|-9-9-9-9-9-9-9-9-9-9-9-9-9-9-9-9-9-9-9-9-9-9-9-9-9-9-9-9-9-9-9-9-9-9-9-|
G|-9-9-9-9-9-9-9-9-9-9-9-9-9-9-9-9-8-8-8-8-8-8-8-8-8-8-8-8-8-8-8-8-8-8-8-|
C|-----------------------------------------------------------------------|


Riff A GTR01:

D|----------------------------------------------------------------------|
A|----------------------------------------------------------------------|
F|------------2--------2-------------------------2----------------------|
C|-3h4----4-4------4-4------4-4-0-0-0-3h4----4-4------4-4-4-----3-------|
G|----------------------------------------------------------5p0---4p0-5-|
C|----------------------------------------------------------------------|


D|---------------------------------------------------------------------------|
A|---------------------------------------------------------------------------|
F|------------2--------2-------------------------2---------------------------|
C|-3h4----4-4------4-4------4-4-0-0-0-3h4----4-4------4-4-4-----3------------|
G|----------------------------------------------------------5p0---4p0-5------|
C|---------------------------------------------------------------------------|


Riff A GTR02:

D|----------------------------------------------------------------------|
A|----------------------------------------------------------------------|
F|----------------------------------------------------------------------|
C|-3\0--------------------------0-0-0-3-------------------4-----3-------|
G|----------------------------------------------------------5p0---4p0-5-|
C|----------------------------------------------------------------------|


D|---------------------------------------------------------------------------|
A|---------------------------------------------------------------------------|
F|---------------------------------------------------------------------------|
C|-3----------------------------0-0-0-3-------------------4-----3------------|
G|----------------------------------------------------------5p0---4p0-5------|
C|---------------------------------------------------------------------------|


Riff A Both GTRs:

D|----------------------------------------------------------------------|
A|----------------------------------------------------------------------|
F|------------2--------2-------------------------2----------------------|
C|-3h4----4-4------4-4------4-4-0-0-0-3h4----4-4------4-4-4-----3-------|
G|----------------------------------------------------------5p0---4p0-5-|
C|----------------------------------------------------------------------|


D|---------------------------------------------------------------------------|
A|---------------------------------------------------------------------------|
F|------------2--------2-------------------------2---------------------------|
C|-3h4----4-4------4-4------4-4-0-0-0-3h4----4-4------4-4-4-----3------------|
G|----------------------------------------------------------5p0---4p0-5------|
C|---------------------------------------------------------------------------|


Breakdown Both GTRs:

D|---------------------------------------------------------------------------|
A|---------------------------------------------------------------------------|
F|---------------------------------------------------------------------------|
C|---------------------------------------------------------------------------|
G|---------------------------------------------------------------------------|
C|-0-12-9-0-12-9-0-12-9-0-12-9-0-12-9-0-0-8-11-0-8-11-9-0-11-9-0-11-9-0-11-9-|


D|-----------------------------------------------------------------|
A|-----------------------------------------------------------------|
F|-----------------------------------------------------------------|
C|-----------------------------------8----7----7----7----6---------|
G|------------------------------10p7-9----9----8----5----4----5----|
C|-0-12-9-0-15-11-14-0-5-11-8-0-------------------------------5----|


D|---------------------------------------------------------------------------|
A|---------------------------------------------------------------------------|
F|---------------------------------------------------------------------------|
C|---------------------------------------------------------------------------|
G|---------------------------------------------------------------------------|
C|-0-12-9-0-12-9-0-12-9-0-12-9-0-12-9-0-0-8-11-0-8-11-9-0-11-9-0-11-9-0-11-9-|


D|-----------------------------------------------------------------|
A|-----------------------------------------------------------------|
F|-----------------------------------------------------------------|
C|-----------------------------------8----7----7----7----6---------|
G|------------------------------10p7-9----9----8----5----4----5-2--|
C|-0-12-9-0-15-11-14-0-5-11-8-0-------------------------------5-2--|


D|---------------------------|
A|---------------------------|
F|---------------------------|
C|-7----7----7----6----12----|
G|-9----8----5----4----10----|
C|---------------------------|


Main Riff Variation Both GTRs:

D|-------------------------------------------------------------------------------------------------|
A|-------------------------------------------------------------------------------------------------|
F|-12-12-12-12-12-12-12-12-12-12-12-12-12-12-12-12-12-12-12-12-12-12-12-12-12-12-12-12-12-12-12-12-|
C|-9--9--9--9--9--9--9--9--9--9--9--9--9--9--9--9---9--9--9--9--9--9--9--9--9--9--9--9--9--9--9--9-|
G|-10-10-10-10-10-10-10-10-10-10-10-10-10-10-10-10-10-10-10-10-10-10-10-10-10-10-10-10-10-10-10-10-|
C|-------------------------------------------------11-11-11-11-11-11-11-11-11-11-11-11-11-11-11-11-|


D|-----------------------------------------------------------------------|
A|-----------------------------------------------------------------------|
F|-7-7-7-7-7-7-7-7-7-7-7-7-7-7-7-7-7-7-7-7-7-7-7-7-7-7-7-7-7-7-7-7-7-7-7-|
C|-9-9-9-9-9-9-9-9-9-9-9-9-9-9-9-9-9-9-9-9-9-9-9-9-9-9-9-9-9-9-9-9-9-9-9-|
G|-9-9-9-9-9-9-9-9-9-9-9-9-9-9-9-9-8-8-8-8-8-8-8-8-8-8-8-8-8-8-8-8-8-8-8-|
C|-----------------------------------------------------------------------|


D|-------------------------------------------------------------------------------------------------|
A|-------------------------------------------------------------------------------------------------|
F|-12-12-12-12-12-12-12-12-12-12-12-12-12-12-12-12-12-12-12-12-12-12-12-12-12-12-12-12-12-12-12-12-|
C|-9--9--9--9--9--9--9--9--9--9--9--9--9--9--9--9---9--9--9--9--9--9--9--9--9--9--9--9--9--9--9--9-|
G|-10-10-10-10-10-10-10-10-10-10-10-10-10-10-10-10-10-10-10-10-10-10-10-10-10-10-10-10-10-10-10-10-|
C|-------------------------------------------------11-11-11-11-11-11-11-11-11-11-11-11-11-11-11-11-|


D|------------------------------------------------------|
A|------------------------------------------------------|
F|-7-7-7-7-7-7-7-7-7-7-7-7-7-7--------------------------|
C|-9-9-9-9-9-9-9-9-9-9-9-9-9-9-9----9----7----6---------|
G|-9-9-9-9-9-9-9-9-9-9-9-9-9-9-9----8----5----4---------|
C|-------------------------------------------------5b---|


Riff A Both GTRs:

D|----------------------------------------------------------------------|
A|----------------------------------------------------------------------|
F|------------2--------2-------------------------2----------------------|
C|-3h4----4-4------4-4------4-4-0-0-0-3h4----4-4------4-4-4-----3-------|
G|----------------------------------------------------------5p0---4p0-5-|
C|----------------------------------------------------------------------|


D|----------------------------------------------------------------------|
A|----------------------------------------------------------------------|
F|------------2--------2-------------------------2----------------------|
C|-3h4----4-4------4-4------4-4-0-0-0-3h4----4-4------4-4-4-----3-------|
G|----------------------------------------------------------5p0---4p0-5-|
C|----------------------------------------------------------------------|


D|----------------------------------------------------------------------|
A|----------------------------------------------------------------------|
F|------------2--------2-------------------------2----------------------|
C|-3h4----4-4------4-4------4-4-0-0-0-3h4----4-4------4-4-4-----3-------|
G|----------------------------------------------------------5p0---4p0-5-|
C|----------------------------------------------------------------------|


D|----------------------------------------------------------------------|
A|----------------------------------------------------------------------|
F|------------2--------2-------------------------2----------------------|
C|-3h4----4-4------4-4------4-4-0-0-0-3h4----4-4------4-4-4-----3-------|
G|----------------------------------------------------------5p0---4p0-5-|
C|----------------------------------------------------------------------|


Pre-Chorus Both GTRs:

D|-----------------------------------------------------------------|
A|-----------------------------------------------------------------|
F|-----------------------------------------------------------------|
C|-5-5-5-5-5-5-5-5-2-2-2-2-2-2-2-2-9-9-9-9-9-9-9-9-7-7-7-7-7-7-7-7-|
G|-5-5-5-5-5-5-5-5-2-2-2-2-2-2-2-2-9-9-9-9-9-9-9-9-7-7-7-7-7-7-7-7-|
C|-5-5-5-5-5-5-5-5-2-2-2-2-2-2-2-2-9-9-9-9-9-9-9-9-7-7-7-7-7-7-7-7-|


D|-----------------------------------------------------------------|
A|-----------------------------------------------------------------|
F|-----------------------------------------------------------------|
C|-5-5-5-5-5-5-5-5-2-2-2-2-2-2-2-2-9-9-9-9-9-9-9-9-7---7---7-------|
G|-5-5-5-5-5-5-5-5-2-2-2-2-2-2-2-2-9-9-9-9-9-9-9-9-7---7---7-------|
C|-5-5-5-5-5-5-5-5-2-2-2-2-2-2-2-2-9-9-9-9-9-9-9-9-7---7---7-------|


Bridge GTR01:

D|---------|
A|---------|
F|---------|
C|---0-----|
G|-9---7\5-|
C|---------|


Chorus GTR01:

D|-------------------------------------------------------------------|
A|-------------------------------12------------------10--------------|
F|---0-------------0-------------------------12-----------------9----|
C|-----0-4r0---------0-2-0----------9------0------------7-----0------|
G|------------------------------------9-10----------------7-9--------|
C|-5---------5h7-2---------5-7-9-------------------7-----------------|


D|----------------------------------------------------------------------|
A|----------------------------------12-----------12------10-------------|
F|---0--------------0-----9-7-0--------11-------------------9-----------|
C|-----0-4b5-4--------0---------7/9-------9----9-------7------7---0-----|
G|------------------------------------------10------------------9---7\5-|
C|-5--------------2-----2-----------------------------------------------|


D|-------------------------------------------------------------------|
A|-------------------------------12------------------10--------------|
F|---0-------------0-------------------------12-----------------9----|
C|-----0-4r0---------0-2-0----------9------0------------7-----0------|
G|------------------------------------9-10----------------7-9--------|
C|-5---------5h7-2---------5-7-9-------------------7-----------------|


D|----------------------------------------------------------------------|
A|----------------------------------12-----------12------10-------------|
F|---0--------------0-----9-7-0--------11-------------------9-----------|
C|-----0-4b5-4--------0---------7/9-------9----9-------7------7---0-----|
G|------------------------------------------10------------------9---7\5-|
C|-5--------------2-----2-----------------------------------------------|



Chorus GTR02:

D|---------------------------------------------|
A|---------------------------------------------|
F|---------------------------------------------|
C|-5-5-5-5~---2-2-2-2~---9-9-9-9~---7-7-7-7~---|
G|-5-5-5-5~---2-2-2-2~---9-9-9-9~---7-7-7-7~---|
C|-5-5-5-5~---2-2-2-2~---9-9-9-9~---7-7-7-7~---|


D|---------------------------------------------|
A|---------------------------------------------|
F|---------------------------------------------|
C|-5-5-5-5~---2-2-2-2~---9-9-9-9~---7-7-7-7~---|
G|-5-5-5-5~---2-2-2-2~---9-9-9-9~---7-7-7-7~---|
C|-5-5-5-5~---2-2-2-2~---9-9-9-9~---7-7-7-7~---|


D|---------------------------------------------|
A|---------------------------------------------|
F|---------------------------------------------|
C|-5-5-5-5----2-2-2-2----9-9-9-9----7-7-7-7----|
G|-5-5-5-5----2-2-2-2----9-9-9-9----7-7-7-7----|
C|-5-5-5-5----2-2-2-2----9-9-9-9----7-7-7-7----|


D|---------------------------------------------------|
A|---------------------------------------------------|
F|---------6b7-6-------------------------------------|
C|-5-5-5-5----------2-2-2-2----9-9-9-9----7-7-7-7----|
G|-5-5-5-5----------2-2-2-2----9-9-9-9----7-7-7-7----|
C|-5-5-5-5----------2-2-2-2----9-9-9-9----7-7-7-7----|


Chorus Variation GTR01:

D|-------------------------------------------------------------------|
A|-------------------------------12------------------10--------------|
F|---0-------------0-------------------------12-----------------9----|
C|-----0-4r0---------0-2-0----------9------0------------7-----0------|
G|------------------------------------9-10----------------7-9--------|
C|-5---------5h7-2---------5-7-9-------------------7-----------------|


D|----------------------------------------------------------------------|
A|----------------------------------12-----------12------10-------------|
F|---0--------------0-----9-7-0--------11-------------------9-----------|
C|-----0-4b5-4--------0---------7/9-------9----9-------7------7---0-----|
G|------------------------------------------10------------------9---7\5-|
C|-5--------------2-----2-----------------------------------------------|


D|-------------------------------------------------------------------|
A|-------------------------------12------------------10--------------|
F|---0-------------0-------------------------12-----------------9----|
C|-----0-4r0---------0-2-0----------9------0------------7-----0------|
G|------------------------------------9-10----------------7-9--------|
C|-5---------5h7-2---------5-7-9-------------------7-----------------|


D|----------------------------------------------------------------------|
A|----------------------------------12-----------12------10-------------|
F|---0--------------0-----9-7-0--------11-------------------9-----------|
C|-----0-4b5-4--------0---------7/9-------9----9-------7------7---0-----|
G|------------------------------------------10------------------9---7\5-|
C|-5--------------2-----2-----------------------------------------------|


Chorus  Variation GTR02:

D|---------------------------------------------|
A|---------------------------------------------|
F|---------------------------------------------|
C|-5~---------2~---------9~---------7~---------|
G|-5~---------2~---------9~---------7~---------|
C|-5~---------2~---------9~---------7~---------|


D|---------------------------------------------|
A|---------------------------------------------|
F|---------------------------------------------|
C|-5~---------2~---------9~---------7~---------|
G|-5~---------2~---------9~---------7~---------|
C|-5~---------2~---------9~---------7~---------|


D|-----------------------------------------------------------------|
A|-----------------------------------------------------------------|
F|-----------------------------------------------------------------|
C|-5-5-5-5-5-5-5-5-2-2-2-2-2-2-2-2-9-9-9-9-9-9-9-9-7-7-7-7-7-7-7-7-|
G|-5-5-5-5-5-5-5-5-2-2-2-2-2-2-2-2-9-9-9-9-9-9-9-9-7-7-7-7-7-7-7-7-|
C|-5-5-5-5-5-5-5-5-2-2-2-2-2-2-2-2-9-9-9-9-9-9-9-9-7-7-7-7-7-7-7-7-|
   . . . . . . . . . . . . . . . . . . . . . . . . . . . . . . . .

D|-----------------------------------------------------------------|
A|-----------------------------------------------------------------|
F|-----------------------------------------------------------------|
C|-5-5-5-5-5-5-5-5-2-2-2-2-2-2-2-2-9-9-9-9-9-9-9-9-7-7-7-7-7-7-7-7-|
G|-5-5-5-5-5-5-5-5-2-2-2-2-2-2-2-2-9-9-9-9-9-9-9-9-7-7-7-7-7-7-7-7-|
C|-5-5-5-5-5-5-5-5-2-2-2-2-2-2-2-2-9-9-9-9-9-9-9-9-7-7-7-7-7-7-7-7-|
   . . . . . . . . . . . . . . . . . . . . . . . . . . . . . . . .

Outro GTR01:

D|-------------------------------------------------------------------|
A|-------------------------------12------------------10--------------|
F|---0-------------0-------------------------12-----------------9----|
C|-----0-4r0---------0-2-0----------9------0------------7-----0------|
G|------------------------------------9-10----------------7-9--------|
C|-5---------5h7-2---------5-7-9-------------------7-----------------|


D|----------------------------------------------------------------------|
A|----------------------------------12-----------12------10-------------|
F|---0--------------0-----9-7-0--------11-------------------9-----------|
C|-----0-4b5-4--------0---------7/9-------9----9-------7------7---0-----|
G|------------------------------------------10------------------9---7\5-|
C|-5--------------2-----2-----------------------------------------------|


D|-------------------------------------------------------------------|
A|-------------------------------12------------------10--------------|
F|---0-------------0-------------------------12-----------------9----|
C|-----0-4r0---------0-2-0----------9------0------------7-----0------|
G|------------------------------------9-10----------------7-9--------|
C|-5---------5h7-2---------5-7-9-------------------7-----------------|


D|----------------------------------------------------------------------|
A|----------------------------------12-----------12------10-------------|
F|---0--------------0-----9-7-0--------11-------------------9-----------|
C|-----0-4b5-4--------0---------7/9-------9----9-------7------7---0-----|
G|------------------------------------------10------------------9---7\5-|
C|-5--------------2-----2-----------------------------------------------|


(/) Slide Up  (\) Slide Down  (h) Hammer On  (p) Pull Off  (b) Bend  (~) Hold  (.) Palm Mute

Suggest correction
comments
print report bad tab
1 comment total.
0 reply
antivyel1337 10 Oct 04, 2016 09:38 PM

Thanks so much!

guest
You may want to rate the tab now too:
select rating
Wanna post a correction for this tab? Suggest correction