Oops, an error
Loading. Please wait.

Moor Tab

version 1
version 1

Whole song

1,480 views 12 this week
no commentswrite comment
1 2 3 4 5
please rate
add to favorites
launch autoscroll
font size
0
reset
how to read this tab
guitar tuner
Tab Pro tools
  • play this tab
  • loop segment
  • change instrument
  • show fretboard
  • metronome
×
Best way to learn
"Moor"
Autoscroll
slow
fast
+/-
esc
set tempo
stop
Contributor
Difficulty
Tuning
intermediate
A E A D F# B
-------------------------------------------------------------------------------
                             MOOR - Every Time I Die
-------------------------------------------------------------------------------
Tabbed by: strangeterrain

AADGBE (Drop A)
4/4
88 BPM


INTRO (Piano) (x3)

   "Pay no mind to the stranger in the 4 AM..."
e |------------|------------|------------|-------------|
B |------------|------------|------------|-------------|
G |------------|------------|------------|-------------|
D |------------|------------|------------|-------------|
A |-4--4--4--4-|-4--4--4--4-|-4--4--4--4-|-4-----------|
A |------------|------------|------------|----5-6-8--0-| (x3)

   "...and you had to let go."
e |------------|------------|------------|-------------|
B |------------|------------|------------|-------------|
G |------------|------------|------------|-------------|
D |------------|------------|------------|-------------|
A |-4--4--4--4-|-4--4--4----|------------|-------------|
A |------------|----------0-|-3--3--3--0-|-2--2--2--0--|


PART I (Guitar) (x2)

   "Lost you in the overflowing fog..."
e |------------|------------|------------|-------------|
B |------------|------------|------------|-------------|
G |------------|------------|------------|-------------|
D |-6--6--6--6-|-6--6--6--6-|-6--6--6--6-|-6-----------|
A |-4--4--4--4-|-4--4--4--4-|-4--4--4--4-|-4-----------|
A |------------|------------|------------|----5-6-8--0-| (x3)

e |------------|------------|------------|-------------|
B |------------|------------|------------|-------------|
G |------------|------------|------------|-------------|
D |-6--6--6--6-|-6--6--6----|------------|-------------|
A |-4--4--4--4-|-4--4--4----|------------|-------------|
A |------------|----------0-|-3--3--3--0-|-2--2--2--0--|


PART II (Guitar)

   "Heaven smiles on me now and then..."
e |------------|------------|------------|-------------|
B |------------|------------|------------|-------------|
G |------------|------------|------------|-------------|
D |------------|------------|------------|-------------|
A |-0----------|------------|------------|-------------|
A |-0----------|------------|------------|----5-6-8--0-|


PART III (Guitar) (x4)

   "All I want is his head..."
e |------------|------------|------------|-----------0-|
B |------------|------------|------------|-----------0-|
G |------------|------------|------------|-----------0-|
D |------------|------------|------------|-------------|
A |-0--0--0--0-|-0--0--0--0-|-0--0--0--0-|-0-----------|
A |-0--0--0--0-|-0--0--0--0-|-0--0--0--0-|-0--5-6-8----|
    .  .  .  .   .  .  .  .   .  .  .  .   .

e |------------|----------0-|----------0-|----------0--|
B |------------|----------0-|----------0-|----------0--|
G |------------|----------0-|----------0-|----------0--|
D |------------|------------|------------|-------------|
A |-0--0--0--0-|-0--0--0----|------------|-------------|
A |-0--0--0--0-|-0--0--0----|-3--3--3----|-2--2--2-----|
    .  .  .  .   .  .  .

OUTRO (Piano)

   "There's nothing that I couldn't do..."
e |------------|------------|------------|-------------|
B |------------|------------|------------|-------------|
G |------------|------------|------------|-------------|
D |------------|------------|------------|-------------|
A |-4--4--4--4-|-4--4--4--4-|-4--4--4--4-|-4-----------|
A |------------|------------|------------|----5-6-8--0-|

e |------------|------------|------------|-------------|
B |------------|------------|------------|-------------|
G |------------|------------|------------|-------------|
D |------------|------------|------------|-------------|
A |-4--4--4--4-|-4--4--4----|------------|----------0--|
A |------------|----------0-|-3--3--3--0-|-2--2--2--0--|


************************************

| /   slide up
| \   slide down
| h   hammer-on
| p   pull-off
| ~   vibrato
| +   harmonic
| x   Mute note
| b   Bend
| pb  Pre-bend
| br  Bend release
| pbr Pre-bend release
| brb Bend release bend

************************************
comments
We did not receive enough feedback on this tab! Please rate:
print report bad tab
1 2 3 4 5
I want to post or [tab]
guest
You may want to rate the tab now too:
select rating
Please do not post tabs as comments. Select "correction" instead!