Oops, an error
Loading. Please wait.

Petal Tab

691 views 45 this week
5 commentsread comments
1 2 3 4 5
x 3
add to favorites
launch autoscroll
font size
0
reset
how to read this tab
guitar tuner
Autoscroll
slow
fast
+/-
esc
set tempo
stop
Help us to improve Ultimate-Guitar.com Take our survey!
×
Author
Difficulty
Tuning
intermediate
D A D G B E
Every Time I Die – Petal

Album: Low Teens
Tuning: Drop D
 

[Intro GTR01]

E|-------------|
B|-10----10-10-|
G|-------------|
D|-8-----8--8--|
A|-------------|
D|-------------|


[Main Riff A Both GTRs]

E|----------------------------------------|
B|-10---10-10---10---10-10---10---10-10---|
G|----------------------------------------|
D|-8----8--8----8----8--8----8----8--8----|
A|----0-------0----0-------0----0-------0-|
D|----0-------0----0-------0----0-------0-|
      .       .    .       .    .       .

E|-------------|
B|-------------|
G|-------------|
D|-9-5-5-5-8---|
A|-7\3-0-3/6-0-|
D|-----------0-|
             .

E|----------------------------------------|
B|-10---10-10---10---10-10---10---10-10---|
G|----------------------------------------|
D|-8----8--8----8----8--8----8----8--8----|
A|----0-------0----0-------0----0-------0-|
D|----0-------0----0-------0----0-------0-|
      .       .    .       .    .       .

E|-------------|
B|-------------|
G|-------------|
D|-9-5-5-5-8---|
A|-7\3-0-3/6-0-|
D|-----------0-|
             .

E|----------------------------------------|
B|-10---10-10---10---10-10---10---10-10---|
G|----------------------------------------|
D|-8----8--8----8----8--8----8----8--8----|
A|----0-------0----0-------0----0-------0-|
D|----0-------0----0-------0----0-------0-|
      .       .    .       .    .       .

E|-------------|
B|-------------|
G|-------------|
D|-9-5-5-5-8---|
A|-7\3-0-3/6-0-|
D|-----------0-|
             .

E|----------------------------------------|
B|-10---10-10---10---10-10---10---10-10---|
G|----------------------------------------|
D|-8----8--8----8----8--8----8----8--8----|
A|----0-------0----0-------0----0-------0-|
D|----0-------0----0-------0----0-------0-|
      .       .    .       .    .       .

E|-------------------------------------|
B|-------------------------------------|
G|-------------------------------------|
D|-9-5-5-5-8---9-5-5-5-8---9-5-5-5-8---|
A|-7\3-0-3/6-0-7\3-0-3/6-0-7\3-0-3/6-0-|
D|-----------0-----------0-----------0-|
             .           .           .

E|------------|
B|------------|
G|------------|
D|-8-8----8-8-|
A|-6-6----6-6-|
D|------------|


[Main Riff B Both Gtrs]

E|-----0-----------0-----------0-------|
B|-----0-----------0-----------0-------|
G|-----0-----------0-----------0-------|
D|-7-3-0-3-6---7-3-0-3-6—--7-3-0-3-6---|
A|-7-3---3-6-0-7-3---3-6-0-7-3---3-6-0-|
D|-7\3---3/6-0-7\3---3/6-0-7\3---3/6-0-|
             .           .           .

E|------------|
B|------------|
G|------------|
D|-6-6----6-6-|
A|-6-6----6-6-|
D|-6-6----6-6-|


E|-----0-----------0-----------0-------|
B|-----0-----------0-----------0-------|
G|-----0-----------0-----------0-------|
D|-7-3-0-3-6---7-3-0-3-6—--7-3-0-3-6---|
A|-7-3---3-6-0-7-3---3-6-0-7-3---3-6-0-|
D|-7\3---3/6-0-7\3---3/6-0-7\3---3/6-0-|
             .           .           .

E|------------|
B|------------|
G|------------|
D|-6-6----6-6-|
A|-6-6----6-6-|
D|-6-6----6-6-|


[Main Riff A GTR01]

E|----------------------------------------|
B|-10---10-10---10---10-10---10---10-10---|
G|----------------------------------------|
D|-8----8--8----8----8--8----8----8--8----|
A|----0-------0----0-------0----0-------0-|
D|----0-------0----0-------0----0-------0-|
      .       .    .       .    .       .

E|-------------|
B|-------------|
G|-------------|
D|-9-5-5-5-8---|
A|-7\3-0-3/6-0-|
D|-----------0-|
             .

E|----------------------------------------|
B|-10---10-10---10---10-10---10---10-10---|
G|----------------------------------------|
D|-8----8--8----8----8--8----8----8--8----|
A|----0-------0----0-------0----0-------0-|
D|----0-------0----0-------0----0-------0-|
      .       .    .       .    .       .

E|-------------|
B|-------------|
G|-------------|
D|-9-5-5-5-8---|
A|-7\3-0-3/6-0-|
D|-----------0-|
             .

E|----------------------------------------|
B|-10---10-10---10---10-10---10---10-10---|
G|----------------------------------------|
D|-8----8--8----8----8--8----8----8--8----|
A|----0-------0----0-------0----0-------0-|
D|----0-------0----0-------0----0-------0-|
      .       .    .       .    .       .

E|-------------|
B|-------------|
G|-------------|
D|-9-5-5-5-8---|
A|-7\3-0-3/6-0-|
D|-----------0-|
             .

E|----------------------------------------|
B|-10---10-10---10---10-10---10---10-10---|
G|----------------------------------------|
D|-8----8--8----8----8--8----8----8--8----|
A|----0-------0----0-------0----0-------0-|
D|----0-------0----0-------0----0-------0-|
      .       .    .       .    .       .

E|-------------------------------------|
B|-------------------------------------|
G|-------------------------------------|
D|-9-5-5-5-8---9-5-5-5-8---9-5-5-5-8---|
A|-7\3-0-3/6-0-7\3-0-3/6-0-7\3-0-3/6-0-|
D|-----------0-----------0-----------0-|
             .           .           .

E|------------|
B|------------|
G|------------|
D|-8-8----8-8-|
A|-6-6----6-6-|
D|------------|


[Main Riff A Variation GTR02]

E|----------------------------------------|
B|-10-------------------------------------|
G|----------------------------------------|
D|-8--------------------------------------|
A|----------------------------------------|
D|----------------------------------------|


E|-------------|
B|-------------|
G|-------------|
D|-9-5-5-5-8---|
A|-7\3-0-3/6-0-|
D|-----------0-|
             .

E|----------------------------------------|
B|-10-------------------------------------|
G|----------------------------------------|
D|-8--------------------------------------|
A|----------------------------------------|
D|----------------------------------------|


E|-------------|
B|-------------|
G|-------------|
D|-9-5-5-5-8---|
A|-7\3-0-3/6-0-|
D|-----------0-|
             .

E|-------------------------------------|
B|-------------------------------------|
G|-------------------------------------|
D|-9-------8---9-------8---9-------8---|
A|---7-7-7---7---7-7-7---7---7-7-7---7-|
D|-------------------------------------|


E|-------------|
B|-------------|
G|-------------|
D|-9-5-5-5-8---|
A|-7\3-0-3/6-0-|
D|-----------0-|
             .

E|----------------------------------------|
B|-10-------------------------------------|
G|----------------------------------------|
D|-8--------------------------------------|
A|----------------------------------------|
D|----------------------------------------|


E|-------------------------------------|
B|-------------------------------------|
G|-------------------------------------|
D|-9-5-5-5-8---9-5-5-5-8---9-5-5-5-8---|
A|-7\3-0-3/6-0-7\3-0-3/6-0-7\3-0-3/6-0-|
D|-----------0-----------0-----------0-|
             .           .           .

E|------------|
B|------------|
G|------------|
D|-8-8----8-8-|
A|-6-6----6-6-|
D|------------|


[Main Riff B Both Gtrs]

E|-----0-----------0-----------0-------|
B|-----0-----------0-----------0-------|
G|-----0-----------0-----------0-------|
D|-7-3-0-3-6---7-3-0-3-6—--7-3-0-3-6---|
A|-7-3---3-6-0-7-3---3-6-0-7-3---3-6-0-|
D|-7\3---3/6-0-7\3---3/6-0-7\3---3/6-0-|
             .           .           .

E|------------|
B|------------|
G|------------|
D|-6-6----6-6-|
A|-6-6----6-6-|
D|-6-6----6-6-|


E|-----0-----------0-----------0-------|
B|-----0-----------0-----------0-------|
G|-----0-----------0-----------0-------|
D|-7-3-0-3-6---7-3-0-3-6—--7-3-0-3-6---|
A|-7-3---3-6-0-7-3---3-6-0-7-3---3-6-0-|
D|-7\3---3/6-0-7\3---3/6-0-7\3---3/6-0-|
             .           .           .

E|--------------------------|
B|--------------------------|
G|--------------------------|
D|-6-6----6-6----6-6----6-6-|
A|-6-6----6-6----6-6----6-6-|
D|-6-6----6-6----6-6----6-6-|


[Interlude GTR01]

E|-------------|
B|-10----10-10-|
G|-------------|
D|-8-----8--8--|
A|-------------|
D|-------------|


[Breakdown A Both GTRs]

E|-------------------------------|
B|-------------------------------|
G|-------------------------------|
D|-1---1-1---1---1-1---1---1-1---|
A|-0-0-0-0-0-0-0-0-0-0-0-0-0-0-0-|
D|-1-0-1-1-0-1-0-1-1-0-1-0-1-1-0-|
     .     .   .     .   .     .

E|-------------|
B|-------------|
G|-------------|
D|-------------|
A|-------------|
D|-7----3----6-|
             *

E|-------------------------------|
B|-------------------------------|
G|-------------------------------|
D|-1---1-1---1---1-1---1---1-1---|
A|-0-0-0-0-0-0-0-0-0-0-0-0-0-0-0-|
D|-1-0-1-1-0-1-0-1-1-0-1-0-1-1-0-|
     .     .   .     .   .     .

E|-------------|
B|-------------|
G|-------------|
D|-------------|
A|-------------|
D|-7----3----6-|
             

E|-------------------------------|
B|-------------------------------|
G|-------------------------------|
D|-1---1-1---1---1-1---1---1-1---|
A|-0-0-0-0-0-0-0-0-0-0-0-0-0-0-0-|
D|-1-0-1-1-0-1-0-1-1-0-1-0-1-1-0-|
     .     .   .     .   .     .

E|-------------|
B|-------------|
G|-------------|
D|-------------|
A|-------------|
D|-7----3----6-|
             *

E|-------------------------------|
B|-------------------------------|
G|-------------------------------|
D|-1---1-1---1---1-1---1---1-1---|
A|-0-0-0-0-0-0-0-0-0-0-0-0-0-0-0-|
D|-1-0-1-1-0-1-0-1-1-0-1-0-1-1-0-|
     .     .   .     .   .     .

E|-------------|
B|-------------|
G|-------------|
D|-------------|
A|-------------|
D|-7----3----6-|


[Bridge GTR01]

E|-----------------------------------------|
B|-----------------------------------------|
G|-9-9-9-9-9-9-9-9-9-9-9-9-9-9-9-9-9-9-9-9-|
D|-8-8-8-8-8-8-8-8-8-8-8-8-8-8-8-8-8-8-8-8-|
A|-7-7-7-7-7-7-7-7-7-7-7-7-7-7-7-7-7-7-7-7\|
D|-----------------------------------------|


[Bridge GTR02]

E|------------------------------------|
B|------------------------------------|
G|-9----9-9-9-9----9-9-9-9----9-9-9-9-|
D|-8----8-8-8-8----8-8-8-8----8-8-8-8-|
A|-7----7-7-7-7----7-7-7-7----7-7-7-7\|
D|------------------------------------|


[Breakdown B GTR01]

E|-------------------------------------|
B|-------------------------------------|
G|-------------------------------------|
D|-------------------------1---1-1---1-|
A|-------------------------0-0-0-0-0-0-|
D|-------------------------1-0-1-1-0-1-|
                             .     .

E|-------------------------------------------|
B|-------------------------------------------|
G|-----------------------------------9-------|
D|-------------------------1---1-1---8-------|
A|-------------------------0-0-0-0-0-7-------|
D|-------------------------1-0-1-1-0---------|
                             .     .

E|-------------------------------------|
B|-------------------------------------|
G|-------------------------------------|
D|-------------------------1---1-1---1-|
A|-------------------------0-0-0-0-0-0-|
D|-------------------------1-0-1-1-0-1-|
                             .     .

E|----------------------------------|
B|----------------------------------|
G|----------------------------------|
D|-1---1-1---1---1-1---1---1-1---1--|
A|-0-0-0-0-0-0-0-0-0-0-0-0-0-0-0-0--|
D|-1-0-1-1-0-1-0-1-1-0-1-0-1-1-0-1--|
     .     .   .     .   .     .


[Breakdown B GTR02]

E|-------------------------------------|
B|-------------------------------------|
G|-------------------------------------|
D|-------------------------1---1-1---1-|
A|-------------------------0-0-0-0-0-0-|
D|-------------------------1-0-1-1-0-1-|
                             .     .

E|-------------------------------------------|
B|-------------------------------------------|
G|-----------------------------------9-------|
D|-------------------------1---1-1---8-------|
A|-------------------------0-0-0-0-0-7-------|
D|-------------------------1-0-1-1-0---------|
                             .     .

E|--------------------------------------------------|
B|--------------------------------------------------|
G|--------------------------------------------------|
D|-9-------8---9-------8---9-------8----1---1-1---1-|
A|---7-7-7---7---7-7-7---7---7-7-7---7--0-0-0-0-0-0-|
D|--------------------------------------1-0-1-1-0-1-|
                                          .     .

E|----------------------------------|
B|----------------------------------|
G|----------------------------------|
D|-1---1-1---1---1-1---1---1-1---1--|
A|-0-0-0-0-0-0-0-0-0-0-0-0-0-0-0-0--|
D|-1-0-1-1-0-1-0-1-1-0-1-0-1-1-0-1--|
     .     .   .     .   .     .


[Breakdown C GTR 01]

E|-------------------------------|
B|-------------------------------|
G|-------------------------------|
D|-1---1-1---1---1-1---1---1-1---|
A|-0-0-0-0-0-0-0-0-0-0-0-0-0-0-0-|
D|-1-0-1-1-0-1-0-1-1-0-1-0-1-1-0-|
     .     .   .     .   .     .

E|--------------|
B|--------------|
G|--------------|
D|--------------|
A|--------------|
D|-7-7-3-3-6----|
           *

E|-------------------------------|
B|-------------------------------|
G|-------------------------------|
D|-1---1-1---1---1-1---1---1-1---|
A|-0-0-0-0-0-0-0-0-0-0-0-0-0-0-0-|
D|-1-0-1-1-0-1-0-1-1-0-1-0-1-1-0-|
     .     .   .     .   .     .

E|-------------|
B|-------------|
G|-------------|
D|-------------|
A|-------------|
D|-7-7-3-3-6-6-|


E|-------------------------------|
B|-------------------------------|
G|-------------------------------|
D|-1---1-1---1---1-1---1---1-1---|
A|-0-0-0-0-0-0-0-0-0-0-0-0-0-0-0-|
D|-1-0-1-1-0-1-0-1-1-0-1-0-1-1-0-|
     .     .   .     .   .     .

E|--------------|
B|--------------|
G|--------------|
D|--------------|
A|--------------|
D|-7-7-3-3-6----|
           *

E|-------------------------------|
B|-------------------------------|
G|-------------------------------|
D|-1---1-1---1---1-1---1---1-1---|
A|-0-0-0-0-0-0-0-0-0-0-0-0-0-0-0-|
D|-1-0-1-1-0-1-0-1-1-0-1-0-1-1-0-|
     .     .   .     .   .     .

E|-------------------------|
B|-------------------------|
G|-------------------------|
D|-------------------------|
A|-------------------------|
D|-7-7-3-3-6-6-7-7-3-3-6-6-|


[Breakdown C GTR 02]

E|-------------------------------|
B|-------------------------------|
G|-------------------------------|
D|-1---1-1---1---1-1---1---1-1---|
A|-0-0-0-0-0-0-0-0-0-0-0-0-0-0-0-|
D|-1-0-1-1-0-1-0-1-1-0-1-0-1-1-0-|
     .     .   .     .   .     .

E|--------------|
B|--------------|
G|--------------|
D|--------------|
A|--------------|
D|-7-7-3-3-6----|
           *

E|-------------------------------|
B|-------------------------------|
G|-------------------------------|
D|-1---1-1---1---1-1---1---1-1---|
A|-0-0-0-0-0-0-0-0-0-0-0-0-0-0-0-|
D|-1-0-1-1-0-1-0-1-1-0-1-0-1-1-0-|
     .     .   .     .   .     .

E|-------------|
B|-------------|
G|-------------|
D|-------------|
A|-------------|
D|-7-7-3-3-6-6-|


E|-------------------------------------|
B|-------------------------------------|
G|-------------------------------------|
D|-9-------8---9-------8---9-------8---|
A|---7-7-7---7---7-7-7---7---7-7-7---7-|
D|-------------------------------------|


E|--------------|
B|--------------|
G|--------------|
D|--------------|
A|--------------|
D|-7-7-3-3-6----|
           *

E|-------------------------------|
B|-------------------------------|
G|-------------------------------|
D|-1---1-1---1---1-1---1---1-1---|
A|-0-0-0-0-0-0-0-0-0-0-0-0-0-0-0-|
D|-1-0-1-1-0-1-0-1-1-0-1-0-1-1-0-|
     .     .   .     .   .     .

E|-------------------------|
B|-------------------------|
G|-------------------------|
D|-------------------------|
A|-------------------------|
D|-7-7-3-3-6-6-7-7-3-3-6-6-|


[Breakdown D GTR01]

E|-------------------------------------|
B|-------------------------------------|
G|-------------------------------------|
D|-1-1---1-1---1-1---1-1---1-1---1-1---|
A|-0-0-0-0-0-0-0-0-0-0-0-0-0-0-0-0-0-0-|
D|-1-1-0-1-1-0-1-1-0-1-1-0-1-1-0-1-1-0-|
       .     .     .     .     .     .

E|-----------0-|
B|-10--------0-|
G|-----------0-|
D|-8---------0-|
A|-------------|
D|----5/17\0---|


E|-------------------------------------|
B|-------------------------------------|
G|-------------------------------------|
D|-1-1---1-1---1-1---1-1---1-1---1-1---|
A|-0-0-0-0-0-0-0-0-0-0-0-0-0-0-0-0-0-0-|
D|-1-1-0-1-1-0-1-1-0-1-1-0-1-1-0-1-1-0-|
       .     .     .     .     .     .

E|-----------0-|
B|-10--------0-|
G|-----------0-|
D|-8---------0-|
A|-------------|
D|----5/17\0---|


[Breakdown D GTR02]

E|-------------------------------------|
B|-------------------------------------|
G|-------------------------------------|
D|-------------------------------------|
A|-------------------------------------|
D|-------------------------------------|


E|-----------0-|
B|-10--------0-|
G|-----------0-|
D|-8---------0-|
A|-------------|
D|----5/17\0---|


E|-------------------------------------|
B|-------------------------------------|
G|-------------------------------------|
D|-------------------------------------|
A|-------------------------------------|
D|-------------------------------------|


E|-----------0-|
B|-10--------0-|
G|-----------0-|
D|-8---------0-|
A|-------------|
D|----5/17\0---|


[Breakdown E Both GTRs]

E|-------------------------------------|
B|-------------------------------------|
G|-------------------------------------|
D|-1-1---1-1---1-1---1-1---1-1---1-1---|
A|-0-0-0-0-0-0-0-0-0-0-0-0-0-0-0-0-0-0-|
D|-1-1-0-1-1-0-1-1-0-1-1-0-1-1-0-1-1-0-|
       .     .     .     .     .     .

E|-----------0-|
B|-10--------0-|
G|-----------0-|
D|-8---------0-|
A|-------------|
D|----5/17\0---|


E|-------------------------------------|
B|-------------------------------------|
G|-------------------------------------|
D|-1-1---1-1---1-1---1-1---1-1---1-1---|
A|-0-0-0-0-0-0-0-0-0-0-0-0-0-0-0-0-0-0-|
D|-1-1-0-1-1-0-1-1-0-1-1-0-1-1-0-1-1-0-|
       .     .     .     .     .     .

E|-----------0-|
B|-10--------0-|
G|-----------0-|
D|-8---------0-|
A|-------------|
D|----5/17\0---|

E|-------------------------------------|
B|-------------------------------------|
G|-------------------------------------|
D|-1-1---1-1---1-1---1-1---1-1---1-1---|
A|-0-0-0-0-0-0-0-0-0-0-0-0-0-0-0-0-0-0-|
D|-1-1-0-1-1-0-1-1-0-1-1-0-1-1-0-1-1-0-|
       .     .     .     .     .     .

E|-----------0-|
B|-10--------0-|
G|-----------0-|
D|-8---------0-|
A|-------------|
D|----5/17\0---|


E|-------------------------------------|
B|-------------------------------------|
G|-------------------------------------|
D|-1-1---1-1---1-1---1-1---1-1---1-1---|
A|-0-0-0-0-0-0-0-0-0-0-0-0-0-0-0-0-0-0-|
D|-1-1-0-1-1-0-1-1-0-1-1-0-1-1-0-1-1-0-|
       .     .     .     .     .     .

E|-----------0-|
B|-10--------0-|
G|-----------0-|
D|-8---------0-|
A|-------------|
D|----5/17\0---|


[Breakdown F Both GTRs]

E|-------------------------------------------------|
B|-------------------------------------------------|
G|-------------------------------------------------|
D|-1-1---1-1---1-1---1-1---1-1---1-1---1-1---1-1---|
A|-0-0-0-0-0-0-0-0-0-0-0-0-0-0-0-0-0-0-0-0-0-0-0-0-|
D|-1-1-0-1-1-0-1-1-0-1-1-0-1-1-0-1-1-0-1-1-0-1-1-0-|
       .     .     .     .     .     .     .     .

E|-------------------------------------------------|
B|-------------------------------------------------|
G|-------------------------------------------------|
D|-1-1---1-1---1-1---1-1---1-1---1-1---1-1---1-1---|
A|-0-0-0-0-0-0-0-0-0-0-0-0-0-0-0-0-0-0-0-0-0-0-0-0-|
D|-1-1-0-1-1-0-1-1-0-1-1-0-1-1-0-1-1-0-1-1-0-1-1-0-|
       .     .     .     .     .     .     .     .

E|-------------------------------------------------|
B|-------------------------------------------------|
G|-------------------------------------------------|
D|-1-1---1-1---1-1---1-1---1-1---1-1---1-1---1-1---|
A|-0-0---0-0---0-0---0-0---0-0---0-0---0-0---0-0---|
D|-1-1---1-1---1-1---1-1---1-1---1-1---1-1---1-1---|
   . .   . .   . .   . .   . .   . .   . .   . .

E|-------------------------------------|
B|-------------------------------------|
G|-------------------------------------|
D|-1-1---1-1---1-1---1-1---1-1---1-1---|
A|-0-0---0-0---0-0---0-0---0-0---0-0---|
D|-1-1---1-1---1-1---1-1---1-1---1-1---|
   . .   . .   . .   . .   . .   . .   

E|-------------|
B|-------------|
G|-9-9-9-9-9-9-|
D|-8-8-8-8-8-8-|
A|-7-7-7-7-7-7-|
D|-------------|


E|-------------------------------------------------|
B|-------------------------------------------------|
G|-------------------------------------------------|
D|-1-1---1-1---1-1---1-1---1-1---1-1---1-1---1-1---|
A|-0-0-0-0-0-0-0-0-0-0-0-0-0-0-0-0-0-0-0-0-0-0-0-0-|
D|-1-1-0-1-1-0-1-1-0-1-1-0-1-1-0-1-1-0-1-1-0-1-1-0-|
       .     .     .     .     .     .     .     .

E|-------------------------------------|
B|-------------------------------------|
G|-------------------------------------|
D|-1-1---1-1---1-1---1-1---1-1---1-1---|
A|-0-0-0-0-0-0-0-0-0-0-0-0-0-0-0-0-0-0-|
D|-1-1-0-1-1-0-1-1-0-1-1-0-1-1-0-1-1-0-|
       .     .     .     .     .     .

E|----------0-|
B|----------0-|
G|-9--------0-|
D|-8--------0-|
A|-7----------|
D|---5/17\0---|


E|-------------------------------------------------|
B|-------------------------------------------------|
G|-------------------------------------------------|
D|-1-1---1-1---1-1---1-1---1-1---1-1---1-1---1-1---|
A|-0-0-0-0-0-0-0-0-0-0-0-0-0-0-0-0-0-0-0-0-0-0-0-0-|
D|-1-1-0-1-1-0-1-1-0-1-1-0-1-1-0-1-1-0-1-1-0-1-1-0-|
       .     .     .     .     .     .     .     .

E|-------------------------------------|
B|-------------------------------------|
G|-------------------------------------|
D|-1-1---1-1---1-1---1-1---1-1---1-1---|
A|-0-0-0-0-0-0-0-0-0-0-0-0-0-0-0-0-0-0-|
D|-1-1-0-1-1-0-1-1-0-1-1-0-1-1-0-1-1-0-|
       .     .     .     .     .     .

E|----------0-|
B|----------0-|
G|-9--------0-|
D|-8--------0-|
A|-7----------|
D|---5/17\0---|



************************************

| /  Slide up
| \  Slide down 
| .  Palm Mute 
| *  Pinch Harmonic

************************************
Suggest correction
Give kudos to tab author, rate the tab!
1 2 3 4 5
comments
print report bad tab
5 comments total. Showing first comments.
0 reply
stagepotato 60 Sep 29, 2016 06:07 PM

Thanks man! I really enjoy your covers and your accurate tabs of the new ETID album!

0 reply
Paul Saalfrank 552 Sep 29, 2016 06:34 PM

Thanks Dude!

0 reply
vppark2 1,600 Oct 02, 2016 10:32 PM

Just need to change the tuning.

guest
You may want to rate the tab now too:
select rating
Wanna post a correction for this tab? Suggest correction