Oops, an error
Loading. Please wait.

Religion Of Speed Tab

version 2
version 2

Whole song

  • Improved chord voicings and more detailed Version.
121 views 27 this week
no commentswrite comment
1 2 3 4 5
2 more votes to show rating
add to favorites
launch autoscroll
font size
0
reset
how to read this tab
guitar tuner
Autoscroll
slow
fast
+/-
esc
set tempo
stop
Help us to improve Ultimate-Guitar.com Take our survey!
×
Author
Difficulty
Tuning
intermediate
D A D G B E
About this tab version
Improved chord voicings and more detailed Version. Was this info helpful? Yes No
Every Time I Die - Religion Of Speed

Album: Low Teens
Tuning: Drop D

[Intro Acoustic]

E|-------0-----------0-----|-------0-----------0-----|-------0-----------0-----|-------0-----------0-----|
B|---4-------4---4-------4-|---4-------4---4-------4-|---0-------0---2-------2-|---0-------0---2-------2-|
G|-6---6---6---5---5---5---|-6---6---6---5---5---5---|-3---3---3---0---0---0---|-3---3---3---0---0---0---|
D|-------------------------|-------------------------|-------------------------|-------------------------|
A|-------------------------|-------------------------|-------------------------|-------------------------|
D|-------------------------|-------------------------|-------------------------|-------------------------|


E|-------0-----------0-----|-------0-----------0-----|-------0-----------0-----|-------0-----------0-----|
B|---4-------4---4-------4-|---4-------4---4-------4-|---0-------0---2-------2-|---0-------0---2-------2-|
G|-6---6---6---5---5---5---|-6---6---6---5---5---5---|-3---3---3---0---0---0---|-3---3---3---0---0---0---|
D|-------------------------|-------------------------|-------------------------|-------------------------|
A|-------------------------|-------------------------|-------------------------|-------------------------|
D|-------------------------|-------------------------|-------------------------|-------------------------|


E|-------0-----------0-----|-------0-----------0-----|-------0-----------0-----|-------0-----------0-----|
B|---4-------4---4-------4-|---4-------4---4-------4-|---0-------0---2-------2-|---0-------0---2-------2-|
G|-6---6---6---5---5---5---|-6---6---6---5---5---5---|-3---3---3---0---0---0---|-3---3---3---0---0---0---|
D|-------------------------|-------------------------|-------------------------|-------------------------|
A|-------------------------|-------------------------|-------------------------|-------------------------|
D|-------------------------|-------------------------|-------------------------|-------------------------|


E|-------0-----------0-----|-------0-----------0-----|
B|---4-------4---4-------4-|---4-------4---4-------4-|
G|-6---6---6---5---5---5---|-6---6---6---5---5---5---|
D|-------------------------|-------------------------|
A|-------------------------|-------------------------|
D|-------------------------|-------------------------|


[Intro Both Electrics]

E|-------------------------|-------------------------|-------------------------|-------------------------|
B|-------------------------|-------------------------|-------------------------|-------------------------|
G|-------------------------|-------------------------|-------------------------|-------------------------|
D|-------------------------|-------------------------|-------------------------|-------------------------|
A|-------------------------|-------------------------|-------------------------|-------------------------|
D|-------------------------|-------------------------|-------------------------|-------------------------|


E|---------------------------------|---------------------------------|---------------------------------|
B|---------------------------------|---------------------------------|---------------------------------|
G|---------------------------------|---------------------------------|---------------------------------|
D|-6-------5-------6-------5-------|-8-------5-------8-------5-------|-6-------------------------------|
A|-4-------3-------4-------3-------|-8-------5-------8-------5-------|-4-------------------------------|
D|-6-------5-------6-------5-------|-8-------5-------8-------5-------|-6-------------------------------|


E|---------------------------------|---------------------------------|---------------------------|
B|---------------------------------|---------------------------------|---------------------------|
G|---------------------------------|---------------------------------|---------------------------|
D|-8-------5-------8-------5-------|-6-------5-------6-------5-------|-8-------5-------8-------5-|
A|-8-------5-------8-------5-------|-4-------3-------4-------3-------|-8-------5-------8-------5-|
D|-8-------5-------8-------5-------|-6-------5-------6-------5-------|-8-------5-------8-------5-|

[Bridge A One GTR]

E|-------------|
B|-------------|
G|-------------|
D|-------------|
A|-1-----5-----|
D|---3/6---6p0-|


[Verse 1 GTR 01]

E|-------------|-------------|-------------|-----------------|
B|-------------|-------------|-------------|-----------------|
G|-------------|-------------|-------------|-----------------|
D|-------------|-------------|-------------|-----------------|
A|-1-------1---|-1-------1---|-1-------1---|-8-------12------|
D|-3-0-0-0-3-0-|-3-0-0-0-3-0-|-3-0-0-0-3-0-|---10/13----13p0-|
     . . .   .     . . .   .     . . .   .

E|-------------|-------------|-------------|-------------|
B|-------------|-------------|-------------|-------------|
G|-------------|-------------|-------------|-------------|
D|-------------|-------------|-------------|-------------|
A|-1-------1---|-1-------1---|-1-------1---|-1-----5-----|
D|-3-0-0-0-3-0-|-3-0-0-0-3-0-|-3-0-0-0-3-0-|---3/6---6p0-|
     . . .   .     . . .   .     . . .   .

E|-------------|-------------|-------------|-----------------|
B|-------------|-------------|-------------|-----------------|
G|-------------|-------------|-------------|-----------------|
D|-------------|-------------|-------------|-----------------|
A|-1-------1---|-1-------1---|-1-------1---|-8-------12------|
D|-3-0-0-0-3-0-|-3-0-0-0-3-0-|-3-0-0-0-3-0-|---10/13----13p0-|
     . . .   .     . . .   .     . . .   .

E|-------------|-------------|-------------|-------------|
B|-------------|-------------|-------------|-------------|
G|-------------|-------------|-------------|-------------|
D|-------------|-------------|-------------|-------------|
A|-1-------1---|-1-------1---|-1-------1---|-1-----5-----|
D|-3-0-0-0-3-0-|-3-0-0-0-3-0-|-3-0-0-0-3-0-|---3/6---6p0-|
     . . .   .     . . .   .     . . .   .

[Verse 1 GTR 02]

E|-------------|-------------|-------------|-------------|
B|-------------|-------------|-------------|-------------|
G|-------------|-------------|-------------|-------------|
D|-------------|-------------|-------------|-------------|
A|-1-------1---|-1-------1---|-1-------1---|-1-----5-----|
D|-3-0-0-0-3-0-|-3-0-0-0-3-0-|-3-0-0-0-3-0-|---3/6---6p0-|
     . . .   .     . . .   .     . . .   .

E|-------------|-------------|-------------|-------------|
B|-------------|-------------|-------------|-------------|
G|-------------|-------------|-------------|-------------|
D|-------------|-------------|-------------|-------------|
A|-1-------1---|-1-------1---|-1-------1---|-1-----5-----|
D|-3-0-0-0-3-0-|-3-0-0-0-3-0-|-3-0-0-0-3-0-|---3/6---6p0-|
     . . .   .     . . .   .     . . .   .

E|-------------|-------------|-------------|-------------|
B|-------------|-------------|-------------|-------------|
G|-------------|-------------|-------------|-------------|
D|-------------|-------------|-------------|-------------|
A|-1-------1---|-1-------1---|-1-------1---|-1-----5-----|
D|-3-0-0-0-3-0-|-3-0-0-0-3-0-|-3-0-0-0-3-0-|---3/6---6p0-|
     . . .   .     . . .   .     . . .   .

E|-------------|-------------|-------------|-------------|
B|-------------|-------------|-------------|-------------|
G|-------------|-------------|-------------|-------------|
D|-------------|-------------|-------------|-------------|
A|-1-------1---|-1-------1---|-1-------1---|-1-----5-----|
D|-3-0-0-0-3-0-|-3-0-0-0-3-0-|-3-0-0-0-3-0-|---3/6---6p0-|
     . . .   .     . . .   .     . . .   .

[Interlude 1 Both GTRs]

E|-------------|-------------|-------------|-------------|-------------|
B|-------------|-------------|-------------|-------------|-------------|
G|-----6-------|-------------|-------------|-------------|-------------|
D|-----6-------|-------------|-------------|-------------|-------------|
A|-------5-8-4-|-5-------5---|-5-------5---|-1-------1---|-1-------1---|
D|-6-3---------|-6-6-6-6-6-6-|-6-6-6-6-6-6-|-3-3-3-3-3-3-|-3-3-3-3-3-3-|
                   . . .   .     . . .   .     . . .   .     . . .   . 

E|-------------|-------------|-------------|-------------|
B|-------------|-------------|-------------|-------------|
G|-------------|-------------|-------------|-------------|
D|-------------|-------------|-------------|-------------|
A|-5-------5---|-5-------5---|-1-------1---|-1-------1---|
D|-6-6-6-6-6-6-|-6-6-6-6-6-6-|-3-3-3-3-3-3-|-3-3-3-3-3-3-|
     . . .   .     . . .   .     . . .   .     . . .   .

E|-------------|-------------|-------------|-------------|-------------|
B|-------------|-------------|-------------|-------------|-------------|
G|-----6-------|-------------|-------------|-------------|-------------|
D|-----6-------|-------------|-------------|-------------|-------------|
A|-------5-8-4-|-5-------5---|-5-------5---|-1-------1---|-1-------1---|
D|-6-3---------|-6-6-6-6-6-6-|-6-6-6-6-6-6-|-3-3-3-3-3-3-|-3-3-3-3-3-3-|
                   . . .   .     . . .   .     . . .   .     . . .   . 

E|-------------|-------------|-------------|-------------|-------------|
B|-------------|-------------|-------------|-------------|-------------|
G|-------------|-------------|-------------|-------------|-----6-------|
D|-------------|-------------|-------------|-------------|-----6-------|
A|-5-------5---|-5-------5---|-1-------1---|-1-------1---|-------5-8-4-|
D|-6-6-6-6-6-6-|-6-6-6-6-6-6-|-3-3-3-3-3-3-|-3-3-3-3-3-3-|-6-3---------|
     . . .   .     . . .   .     . . .   .     . . .   .

[Pre-Chorus Both GTRs]

E|-------------------|---------------------|-------------------|---------------------|
B|-------------------|---------------------|-------------------|---------------------|
G|-6-----------------|-6-------------------|-6-----------------|-6-------------------|
D|-----3-------------|-----3---------------|-----3-------------|-----3---------------|
A|-5---4---1----/5---|-5---4---1-5---------|-5---4---1----/5---|-5---4---1-----------|
D|---0---0-3-----6-0-|---0---0-3/6-6-6-6-6-|---0---0-3-----6-0-|---0---0-3-3-3-3-3-3-|
     .   .         .     .   .     . . . .     .   .         .     .       . . . . .

E|-------------------|---------------------|-------------------|---------------------|
B|-------------------|---------------------|-------------------|---------------------|
G|-6-----------------|-6-------------------|-6-----------------|-6-------------------|
D|-----3-------------|-----3---------------|-----3-------------|-----3---------------|
A|-5---4---1----/5---|-5---4---1-5---------|-5---4---1----/5---|-5---4---1-----------|
D|---0---0-3-----6-0-|---0---0-3/6-6-6-6-6-|---0---0-3-----6-0-|---0---0-3-3-3-3-3-3-|
     .   .         .     .   .     . . . .     .   .         .     .       . . . . .

[Bridge B GTR 01]

E|-------------|-------------|
B|-------------|-------------|
G|-------------|-6-5-0---6p0-|
D|-------------|-6-5p0h8-8---|
A|-1-----5-----|-------------|
D|---3/6---6p0-|-------------|

[Bridge B GTR 02]

E|-------------|-------------|
B|-------------|-------------|
G|-------------|-6-5-0---6p0-|
D|-------------|-6-5p0h8-8---|
A|-1-----------|-------------|
D|-3-----------|-------------|


[Chorus 1 Both GTRs]

E|---|----------------|-----------------|----------------|------------------|-------------------|
B|---|----------------|-----------------|----------------|------------------|-------------------|
G|-7-|----------------|---------------7-|----------------|---------------14-|-14----\11-11------|
D|---|----------------|-----------------|----------------|------------------|-------------------|
A|-5-|----------------|---------------5-|----------------|---------------12-|-12-----9--9-------|
D|---|----0-0-0-0-0-0-|-0-0-0-0-0-0-0---|----0-0-0-0-0-0-|-0-0-0-0-0-0-0-0--|-0------0--0-----0-|


E|--------------------|----------------|------------------|----------------|-----------------|
B|--------------------|----------------|------------------|----------------|-----------------|
G|-11/12\11-9/11/12-7-|----------------|-6-5-0---6p0----7-|----------------|---------------7-|
D|--------------------|----------------|-6-5p0h8-8--------|----------------|-----------------|
A|-9--10-9--7-9--10-5-|----------------|----------------5-|----------------|---------------5-|
D|-0-----0--0---------|----0-0-0-0-0-0-|------------------|----0-0-0-0-0-0-|-0-0-0-0-0-0-0---|


E|----------------|------------------|-------------------|--------------------|----------------|
B|----------------|------------------|-------------------|--------------------|----------------|
G|----------------|---------------14-|-14----\11-11------|-11/12\11-11/12\9-7-|----------------|
D|----------------|------------------|-------------------|--------------------|----------------|
A|----------------|---------------12-|-12-----9--9-------|-9--10-9--9--10-7-5-|----------------|
D|----0-0-0-0-0-0-|-0-0-0-0-0-0-0-0--|-0------0--0-----0-|-0--------0---------|----0-0-0-0-0-0-|


E|---------------------|
B|---------------8-8-8-|
G|-6-5-0---6p0h6-9-9-9-|
D|-6-5p0h8-8---8-------|
A|---------------------|
D|---------------------|


[Re-Intro GTR 01]

E|-------0-----------0-----|-------0-----------0-----|-------0-----------0-----|-------0-----------0-----|
B|---4-------4---4-------4-|---4-------4---4-------4-|---0-------0---2-------2-|---0-------0---2-------2-|
G|-6---6---6---5---5---5---|-6---6---6---5---5---5---|-3---3---3---0---0---0---|-3---3---3---0---0---0---|
D|-------------------------|-------------------------|-------------------------|-------------------------|
A|-------------------------|-------------------------|-------------------------|-------------------------|
D|-------------------------|-------------------------|-------------------------|-------------------------|


E|----------0----------------0-------|----------0----------------0-------|
B|----16---------16----16---------16-|----16---------16----16---------16-|
G|-18----18---18----17----17---17----|-18----18---18----17----17---17----|
D|-----------------------------------|-----------------------------------|
A|-----------------------------------|-----------------------------------|
D|-----------------------------------|-----------------------------------|


E|----------0----------------0-------|----------0----------------0-------|
B|----12---------12----14---------14-|----12---------12----14---------14-|
G|-15----15---15----12----12---12----|-15----15---15----12----12---12----|
D|-----------------------------------|-----------------------------------|
A|-----------------------------------|-----------------------------------|
D|-----------------------------------|-----------------------------------|


E|----------0----------------0-------|----------0----------------0-------|
B|----16---------16----16---------16-|----16---------16----16---------16-|
G|-18----18---18----17----17---17----|-18----18---18----17----17---17----|
D|-----------------------------------|-----------------------------------|
A|-----------------------------------|-----------------------------------|
D|-----------------------------------|-----------------------------------|


E|----------0----------------0-------|----------0----------------0-------|
B|----12---------12----14---------14-|----12---------12----14---------14-|
G|-15----15---15----12----12---12----|-15----15---15----12----12---12----|
D|-----------------------------------|-----------------------------------|
A|-----------------------------------|-----------------------------------|
D|-----------------------------------|-----------------------------------|


[Re-Intro GTR 02]

E|-------0-----------0-----|-------0-----------0-----|-------0-----------0-----|-------0-----------0-----|
B|---4-------4---4-------4-|---4-------4---4-------4-|---0-------0---2-------2-|---0-------0---2-------2-|
G|-6---6---6---5---5---5---|-6---6---6---5---5---5---|-3---3---3---0---0---0---|-3---3---3---0---0---0---|
D|-------------------------|-------------------------|-------------------------|-------------------------|
A|-------------------------|-------------------------|-------------------------|-------------------------|
D|-------------------------|-------------------------|-------------------------|-------------------------|


E|-------0-----------0-----|-------0-----------0-----|-------0-----------0-----|-------0-----------0-----|
B|---4-------4---4-------4-|---4-------4---4-------4-|---0-------0---2-------2-|---0-------0---2-------2-|
G|-6---6---6---5---5---5---|-6---6---6---5---5---5---|-3---3---3---0---0---0---|-3---3---3---0---0---0---|
D|-------------------------|-------------------------|-------------------------|-------------------------|
A|-------------------------|-------------------------|-------------------------|-------------------------|
D|-------------------------|-------------------------|-------------------------|-------------------------|


E|-------------------------------------|-------------------------------------|
B|----11----12p11-------11----11----11-|----11----12p11-------11----11----11-|
G|-13----13-------13-12----12----12----|-13----13-------13-12----12----12----|
D|-------------------------------------|-------------------------------------|
A|-------------------------------------|-------------------------------------|
D|-------------------------------------|-------------------------------------|


E|-------0-----------------|-------0-----------------|
B|---6-------6---8---8---8-|---6-------6---8---8---8-|
G|-9---9---9---6---6---6---|-9---9---9---6---6---6---|
D|-------------------------|-------------------------|
A|-------------------------|-------------------------|
D|-------------------------|-------------------------|


[Pre-Chorus Both GTRs]

E|-------------------|---------------------|-------------------|---------------------|
B|-------------------|---------------------|-------------------|---------------------|
G|-6-----------------|-6-------------------|-6-----------------|-6-------------------|
D|-----3-------------|-----3---------------|-----3-------------|-----3---------------|
A|-5---4---1----/5---|-5---4---1-5---------|-5---4---1----/5---|-5---4---1-----------|
D|---0---0-3-----6-0-|---0---0-3/6-6-6-6-6-|---0---0-3-----6-0-|---0---0-3-3-3-3-3-3-|
     .   .         .     .   .     . . . .     .   .         .     .       . . . . .

E|-------------------|---------------------|-------------------|---------------------|
B|-------------------|---------------------|-------------------|---------------------|
G|-6-----------------|-6-------------------|-6-----------------|-6-------------------|
D|-----3-------------|-----3---------------|-----3-------------|-----3---------------|
A|-5---4---1----/5---|-5---4---1-5---------|-5---4---1----/5---|-5---4---1-----------|
D|---0---0-3-----6-0-|---0---0-3/6-6-6-6-6-|---0---0-3-----6-0-|---0---0-3-3-3-3-3-3-|
     .   .         .     .   .     . . . .     .   .         .     .       . . . . .

[Bridge C Both GTRs]

E|-------------|-------------|
B|-------------|-------------|
G|-------------|-6-5-0---6p0-|
D|-------------|-6-5p0h8-8---|
A|-1-----------|-------------|
D|-3-----------|-------------|


[Chorus 2 Both GTRs]

E|---|----------------|-----------------|----------------|------------------|-------------------|
B|---|----------------|-----------------|----------------|------------------|-------------------|
G|-7-|----------------|---------------7-|----------------|---------------14-|-14----\11-11------|
D|---|----------------|-----------------|----------------|------------------|-------------------|
A|-5-|----------------|---------------5-|----------------|---------------12-|-12-----9--9-------|
D|---|----0-0-0-0-0-0-|-0-0-0-0-0-0-0---|----0-0-0-0-0-0-|-0-0-0-0-0-0-0-0--|-0------0--0-----0-|


E|--------------------|----------------|------------------|----------------|-----------------|
B|--------------------|----------------|------------------|----------------|-----------------|
G|-11/12\11-9/11/12-7-|----------------|-6-5-0---6p0----7-|----------------|---------------7-|
D|--------------------|----------------|-6-5p0h8-8--------|----------------|-----------------|
A|-9--10-9--7-9--10-5-|----------------|----------------5-|----------------|---------------5-|
D|-0-----0--0---------|----0-0-0-0-0-0-|------------------|----0-0-0-0-0-0-|-0-0-0-0-0-0-0---|


E|----------------|------------------|-------------------|--------------------|----------------|
B|----------------|------------------|-------------------|--------------------|----------------|
G|----------------|---------------14-|-14----\11-11------|-11/12\11-11/12\9-7-|----------------|
D|----------------|------------------|-------------------|--------------------|----------------|
A|----------------|---------------12-|-12-----9--9-------|-9--10-9--9--10-7-5-|----------------|
D|----0-0-0-0-0-0-|-0-0-0-0-0-0-0-0--|-0------0--0-----0-|-0--------0---------|----0-0-0-0-0-0-|


[Bridge D GTR 01]

E|-----------------|-------------|
B|-----------------|-------------|
G|-6-5-0---6p0-----|-------------|
D|-6-5p0h8-8-------|-------------|
A|-------------0-0-|-1-----5-----|
D|-------------0-0-|---3/6---6p0-|
               . .

[Bridge D GTR 02]

E|-----------------|-------------|
B|-----------------|-------------|
G|-6-5-0---6p0-----|-------------|
D|-6-5p0h8-8-------|-------------|
A|-------------0-0-|-------------|
D|-------------0-0-|-------------|
               . .

[Verse 2 GTR 01]

E|-------------|-------------|-------------|-----------------|
B|-------------|-------------|-------------|-----------------|
G|-------------|-------------|-------------|-----------------|
D|-------------|-------------|-------------|-----------------|
A|-1-------1---|-1-------1---|-1-------1---|-8-------12------|
D|-3-0-0-0-3-0-|-3-0-0-0-3-0-|-3-0-0-0-3-0-|---10/13----13p0-|
     . . .   .     . . .   .     . . .   .

E|-------------|-------------|-------------|-------------|
B|-------------|-------------|-------------|-------------|
G|-------------|-------------|-------------|-------------|
D|-------------|-------------|-------------|-------------|
A|-1-------1---|-1-------1---|-1-------1---|-1-----5-----|
D|-3-0-0-0-3-0-|-3-0-0-0-3-0-|-3-0-0-0-3-0-|---3/6---6p0-|
     . . .   .     . . .   .     . . .   .

E|-------------|-------------|-------------|-----------------|
B|-------------|-------------|-------------|-----------------|
G|-------------|-------------|-------------|-----------------|
D|-------------|-------------|-------------|-----------------|
A|-1-------1---|-1-------1---|-1-------1---|-8-------12------|
D|-3-0-0-0-3-0-|-3-0-0-0-3-0-|-3-0-0-0-3-0-|---10/13----13p0-|
     . . .   .     . . .   .     . . .   .

E|-------------|-------------|-------------|-------------|
B|-------------|-------------|-------------|-------------|
G|-------------|-------------|-------------|-------------|
D|-------------|-------------|-------------|-------------|
A|-1-------1---|-1-------1---|-1-------1---|-1-----5-----|
D|-3-0-0-0-3-0-|-3-0-0-0-3-0-|-3-0-0-0-3-0-|---3/6---6p0-|
     . . .   .     . . .   .     . . .   .

[Verse 2 GTR 02]

E|-------------|-------------|-------------|-------------|
B|-------------|-------------|-------------|-------------|
G|-------------|-------------|-------------|-------------|
D|-------------|-------------|-------------|-------------|
A|-1-------1---|-1-------1---|-1-------1---|-1-----5-----|
D|-3-0-0-0-3-0-|-3-0-0-0-3-0-|-3-0-0-0-3-0-|---3/6---6p0-|
     . . .   .     . . .   .     . . .   .

E|-------------|-------------|-------------|-------------|
B|-------------|-------------|-------------|-------------|
G|-------------|-------------|-------------|-------------|
D|-------------|-------------|-------------|-------------|
A|-1-------1---|-1-------1---|-1-------1---|-1-----5-----|
D|-3-0-0-0-3-0-|-3-0-0-0-3-0-|-3-0-0-0-3-0-|---3/6---6p0-|
     . . .   .     . . .   .     . . .   .

E|-------------|-------------|-------------|-------------|
B|-------------|-------------|-------------|-------------|
G|-------------|-------------|-------------|-------------|
D|-------------|-------------|-------------|-------------|
A|-1-------1---|-1-------1---|-1-------1---|-1-----5-----|
D|-3-0-0-0-3-0-|-3-0-0-0-3-0-|-3-0-0-0-3-0-|---3/6---6p0-|
     . . .   .     . . .   .     . . .   .

E|-------------|-------------|-------------|-------------|
B|-------------|-------------|-------------|-------------|
G|-------------|-------------|-------------|-------------|
D|-------------|-------------|-------------|-------------|
A|-1-------1---|-1-------1---|-1-------1---|-1-----5-----|
D|-3-0-0-0-3-0-|-3-0-0-0-3-0-|-3-0-0-0-3-0-|---3/6---6p0-|
     . . .   .     . . .   .     . . .   .

[Interlude 2 Both GTRs]

E|-------------|-------------|-------------|-------------|-------------|
B|-------------|-------------|-------------|-------------|-------------|
G|-----6-------|-------------|-------------|-------------|-------------|
D|-----6-------|-------------|-------------|-------------|-------------|
A|-------5-8-4-|-5-------5---|-5-------5---|-1-------1---|-1-------1---|
D|-6-3---------|-6-6-6-6-6-6-|-6-6-6-6-6-6-|-3-3-3-3-3-3-|-3-3-3-3-3-3-|
                   . . .   .     . . .   .     . . .   .     . . .   . 

E|-------------|-------------|-------------|-------------|
B|-------------|-------------|-------------|-------------|
G|-------------|-------------|-------------|-------------|
D|-------------|-------------|-------------|-------------|
A|-5-------5---|-5-------5---|-1-------1---|-1-------1---|
D|-6-6-6-6-6-6-|-6-6-6-6-6-6-|-3-3-3-3-3-3-|-3-3-3-3-3-3-|
     . . .   .     . . .   .     . . .   .     . . .   .

E|-------------|-------------|-------------|-------------|-------------|
B|-------------|-------------|-------------|-------------|-------------|
G|-----6-------|-------------|-------------|-------------|-------------|
D|-----6-------|-------------|-------------|-------------|-------------|
A|-------5-8-4-|-5-------5---|-5-------5---|-1-------1---|-1-------1---|
D|-6-3---------|-6-6-6-6-6-6-|-6-6-6-6-6-6-|-3-3-3-3-3-3-|-3-3-3-3-3-3-|
                   . . .   .     . . .   .     . . .   .     . . .   . 

E|-------------|-------------|-------------|-------------|
B|-------------|-------------|-------------|-------------|
G|-------------|-------------|-------------|-------------|
D|-------------|-------------|-------------|-------------|
A|-5-------5---|-5-------5---|-1-------1---|-1-------1---|
D|-6-6-6-6-6-6-|-6-6-6-6-6-6-|-3-3-3-3-3-3-|-3-3-3-3-3-3-|
     . . .   .     . . .   .     . . .   .     . . .   .

[Bridge E Both GTRs]

E|-------------|-------------|-------------|-------------|-------------|
B|-------------|-------------|-------------|-------------|-------------|
G|-----6-------|-----6-------|-----6-------|-----6-------|-------------|
D|-----6-------|-----6-------|-----6-------|-----6-------|-------------|
A|-------5-8-4-|-------5-8-4-|-------5-8-4-|-------5-8-4-|-------------|
D|-6-3---------|-6-3---------|-6-3---------|-6-3---------|-------------|


[Chorus Variation A GTR 01]

E|------------------|-----------------|----------------|------------------|----------------|
B|------------------|-----------------|----------------|------------------|----------------|
G|-7----------------|---------------7-|----------------|---14---7---9---7-|----------------|
D|------------------|-----------------|----------------|------------------|----------------|
A|-5----------------|---------------5-|----------------|---12---5---7---5-|----------------|
D|------0-0-0-0-0-0-|-0-0-0-0-0-0-0---|----0-0-0-0-0-0-|-0-0--0-0-0-0-0---|----0-0-0-0-0-0-|


E|-----------------|----------------|----------------|-------------|
B|-----------------|----------------|----------------|-------------|
G|---------------7-|----------------|-----6----------|-------------|
D|-----------------|----------------|-----6----------|-------------|
A|---------------5-|----------------|-------5-8-4----|-------------|
D|-0-0-0-0-0-0-0---|----0-0-0-0-0-0-|-6-3------------|-------------|


[Chorus Variation A GTR 02]

E|------------------|-----------------|----------------|------------------|----------------|
B|------------------|-----------------|----------------|------------------|----------------|
G|-7----------------|-----------------|----------------|---14---7---9---7-|----------------|
D|------------------|-----------------|----------------|------------------|----------------|
A|-5----------------|-----------------|----------------|---12---5---7---5-|----------------|
D|------------------|-----------------|----------------|------------------|----------------|


E|-----------------|----------------|----------------|-------------|
B|-----------------|----------------|----------------|-------------|
G|-----------------|----------------|-----6----------|-------------|
D|-----------------|----------------|-----6----------|-------------|
A|-----------------|----------------|-------5-8-4----|-------------|
D|-----------------|----------------|-6-3------------|-------------|


[Chorus Variation B GTR 01]

E|------------------|-----------------|----------------|---------------|
B|------------------|-----------------|----------------|---------------|
G|-7----------------|---------------7-|----------------|---------------|
D|------------------|-----------------|----------------|---------------|
A|-5----------------|---------------5-|----------------|---------------|
D|------0-0-0-0-0-0-|-0-0-0-0-0-0-0---|----0-0-0-0-0-0-|-0-0-0-0-0-0-0-|

        
E|------------------|-----------------|----------------|-------------------|----------|
B|------------------|-----------------|----------------|-------------------|----------|
G|-7----------------|---------------7-|----------------|-------13----------|----------|
D|------------------|-----------------|----------------|-------13----------|----------|
A|-5----------------|---------------5-|----------------|----------12-15-11-|----------|
D|------0-0-0-0-0-0-|-0-0-0-0-0-0-0---|----0-0-0-0-0-0-|-13-10-------------|----------|


[Chorus Variation B GTR 02]

E|------------------|-----------------|----------------|---------------|
B|------------------|-----------------|----------------|---------------|
G|-7----------------|---------------7-|----------------|---------------|
D|------------------|-----------------|----------------|---------------|
A|-5----------------|---------------5-|----------------|---------------|
D|------0-0-0-0-0-0-|-0-0-0-0-0-0-0---|----0-0-0-0-0-0-|-0-0-0-0-0-0-0-|

        
E|------------------|-----------------|----------------|-------------|----------|
B|------------------|-----------------|----------------|-------------|----------|
G|-7----------------|---------------7-|----------------|-----6-------|----------|
D|------------------|-----------------|----------------|-----6-------|----------|
A|-5----------------|---------------5-|----------------|-------5-8-4-|----------|
D|------0-0-0-0-0-0-|-0-0-0-0-0-0-0---|----0-0-0-0-0-0-|-6-3---------|----------|


[Chorus Variation C Both GTRs]

E|-------------------|------------------|-----------------|----------------|
B|-------------------|------------------|-----------------|----------------|
G|-7-----------------|----------------7-|-----------------|----------------|
D|-------------------|------------------|-----------------|----------------|
A|-5----0-0-0-0----0-|-0-0-0----0-0-0-5-|----0-0-0-0----0-|-0-0-0----0-0-0-|
D|------0-0-0-0----0-|-0-0-0----0-0-0---|----0-0-0-0----0-|-0-0-0----0-0-0-|


E|-------------------|------------------|-----------------|-------------|-----------|
B|-------------------|------------------|-----------------|-------------|-----------|
G|-7-----------------|----------------7-|-----------------|-----6-------|-----------|
D|-------------------|------------------|-----------------|-----6-------|-----------|
A|-5----0-0-0-0----0-|-0-0-0----0-0-0-5-|----0-0-0-0----0-|-------5-8-4-|-----------|
D|------0-0-0-0----0-|-0-0-0----0-0-0---|----0-0-0-0----0-|-6-3---------|-----------|


[Chorus Variation D GTR 01]

E|------------------|-----------------|----------------|------------------|----------------|
B|------------------|-----------------|----------------|------------------|----------------|
G|-7----------------|---------------7-|----------------|---14---7---9---7-|----------------|
D|------------------|-----------------|----------------|------------------|----------------|
A|-5----------------|---------------5-|----------------|---12---5---7---5-|----------------|
D|------0-0-0-0-0-0-|-0-0-0-0-0-0-0---|----0-0-0-0-0-0-|-0-0--0-0-0-0-0---|----0-0-0-0-0-0-|


E|-----------------|----------------|-------------------|-------------|
B|-----------------|----------------|-------------------|-------------|
G|---------------7-|----------------|-------13----------|-------------|
D|-----------------|----------------|-------13----------|-------------|
A|---------------5-|----------------|----------12-15-11-|-------------|
D|-0-0-0-0-0-0-0---|----0-0-0-0-0-0-|-13-10-------------|-------------|


[Chorus Variation A GTR 01]

E|------------------|-----------------|----------------|------------------|----------------|
B|------------------|-----------------|----------------|------------------|----------------|
G|-7----------------|---------------7-|----------------|---14---7---9---7-|----------------|
D|------------------|-----------------|----------------|------------------|----------------|
A|-5----------------|---------------5-|----------------|---12---5---7---5-|----------------|
D|------0-0-0-0-0-0-|-0-0-0-0-0-0-0---|----0-0-0-0-0-0-|-0-0--0-0-0-0-0---|----0-0-0-0-0-0-|


E|-----------------|----------------|----------------|-------------|
B|-----------------|----------------|----------------|-------------|
G|---------------7-|----------------|-----6----------|-------------|
D|-----------------|----------------|-----6----------|-------------|
A|---------------5-|----------------|-------5-8-4----|-------------|
D|-0-0-0-0-0-0-0---|----0-0-0-0-0-0-|-6-3------------|-------------|


[Outro Both GTRs]

E|-------------------|------------------|-----------------|----------------|
B|-------------------|------------------|-----------------|----------------|
G|-7-----------------|----------------7-|-----------------|----------------|
D|-------------------|------------------|-----------------|----------------|
A|-5----0-0-0-0----0-|-0-0-0----0-0-0-5-|----0-0-0-0----0-|-0-0-0----0-0-0-|
D|------0-0-0-0----0-|-0-0-0----0-0-0---|----0-0-0-0----0-|-0-0-0----0-0-0-|
        . . . .    .   . . .    . . .        . . . .    .   . . .    . . .

E|-------------------|------------------|-----------------|-------------|-----------|
B|-------------------|------------------|-----------------|-------------|-----------|
G|-7-----------------|----------------7-|-----------------|-----6-------|-----------|
D|-------------------|------------------|-----------------|-----6-------|-----------|
A|-5----0-0-0-0----0-|-0-0-0----0-0-0-5-|----0-0-0-0----0-|-------5-8-4-|-----------|
D|------0-0-0-0----0-|-0-0-0----0-0-0---|----0-0-0-0----0-|-6-3---------|-----------|
        . . . .    .   . . .    . . . 



(/) Slide Up  
(\) Slide Down  
(h) Hammer On  
(p) Pull Off  
(.) Palm Mute

        
Suggest correction
Give kudos to tab author, rate the tab!
1 2 3 4 5
comments
print report bad tab
guest
You may want to rate the tab now too:
select rating
Wanna post a correction for this tab? Suggest correction