Oops, an error
Loading. Please wait.

Shes My Rushmore bass

version 1
version 1

Whole song

Interactive

396 views 1 this week
no commentswrite comment
1 2 3 4 5
3 more votes to show rating
add to favorites
×
Save as Personal and add changes to this tab that will be seen only by you. Learn more ›
×
You can save this tab as Personal to edit and correct it or add notes. All changes will be seen only by you. Learn more »
launch autoscroll
font size
0
reset
guitar tuner
edit
Autoscroll
slow
fast
+/-
esc
set tempo
stop
She's My Rushmore                                 
Every Time I Die
Bass



     E   E  E   E  E   E  E   E     E   E  E   E  E   E  E   E   
G||------------------------------|------------------------------|
D||------------------------------|------------------------------|
A||----------------3p--0--4p--0--|----------------3p--0--4p--0--|
D||--3p--0--2p--0----------------|--3p--0--2p--0----------------|


  E   E  E   E  E   E  E   E     E   E  E   E  E   E  E   E   
------------------------------|------------------------------|
------------------------------|------------------------------|
----------------3p--0--4p--0--|----------------3p--0--4p--0--|
--3p--0--2p--0----------------|--3p--0--2p--0----------------|


  E   E  E   E  E   E  E   E     E   E  E   E  E   E  E   E   
------------------------------|------------------------------|
------------------------------|------------------------------|
----------------6p--0--5p--0--|----------------6p--0--5p--0--|
--6p--0--8p--0----------------|--6p--0--8p--0----------------|


  E   E  E   E  E   E  E   E     E   E  E   E  E   E  E   E   
------------------------------|------------------------------|
------------------------------|------------------------------|
----------------6p--0--5p--0--|----------------6p--0--5p--0--|
--6p--0--8p--0----------------|--6p--0--8p--0----------------|


   E   E   E   E   E   E   E   E      E   E   E   E   E   E   E   E   
----------------------------------|----------------------------------|
----------------------------------|----------------------------------|
------------------11p--0--10p--0--|------------------11p--0--10p--0--|
--10--11--12p--0------------------|--10--11--12p--0------------------|


   E   E   E   E   E   E   E   E      E   E   E   E   E   E   E   E   
----------------------------------|----------------------------------|
----------------------------------|----------------------------------|
------------------11p--0--10p--0--|------------------11p--0--10p--0--|
--10--11--12p--0------------------|--10--11--12p--0------------------|


   E   E   E   E   E   E   E   E      E   E   E   E   E   E   E   E   
----------------------------------|----------------------------------|
----------------------------------|----------------------------------|
------------------11p--0--10p--0--|------------------11p--0--10p--0--|
--10--11--12p--0------------------|--10--11--12p--0------------------|


   E   E   E   E   E   E   E   E      E   E   E   E   E   E   E   E   
----------------------------------|----------------------------------|
----------------------------------|----------------------------------|
------------------11p--0--10p--0--|------------------11p--0--10p--0--|
--10--11--12p--0------------------|--10--11--12p--0------------------|


  E   E  E   E  E   E  E   E     E   E  E   E  E   E  E   E   
------------------------------|------------------------------|
------------------------------|------------------------------|
----------------3p--0--4p--0--|----------------3p--0--4p--0--|
--3p--0--2p--0----------------|--3p--0--2p--0----------------|


  E   E  E   E  E   E  E   E     E   E  E   E  E   E  E   E   
------------------------------|------------------------------|
------------------------------|------------------------------|
----------------3p--0--4p--0--|----------------3p--0--4p--0--|
--3p--0--2p--0----------------|--3p--0--2p--0----------------|


  Q    Q    Q    Q       Q    Q    Q    Q       Q    Q    Q    Q     
----------------------|----------------------|----------------------|
----------------------|----------------------|----------------------|
------------3----2----|------------2----1----|------------3----2----|
--3----4--------------|--2----3--------------|--3----4--------------|


  Q    Q    Q    Q       Q    Q    Q    Q       W                 
----------------------|----------------------|-------------------|
----------------------|----------------------|-------------------|
------------2----1----|----------------------|-------------------|
--2----3--------------|--1----4----3----1----|-------------------|


  Q    E  E  E  E  Q       E  E  E  E  Q    E  E     Q    Q    Q    Q     
------------------------|-------------------------|----------------------|
------------------------|-------------------------|----------------------|
------------------------|-------------------------|----------------------|
-------0--0--0----------|--0--0--0----------0--0--|--1----4----3----1----|


  W                   Q    E  E  E  E  Q       E  E  E  E  Q    E  E   
-------------------|------------------------|-------------------------|
-------------------|------------------------|-------------------------|
-------------------|------------------------|-------------------------|
-------------------|-------0--0--0----------|--0--0--0----------0--0--|


  Q    Q    Q    Q       E  E  E  E  E  E  E  E     Q    Q    Q    Q     
----------------------|--------------------------|----------------------|
----------------------|--------------------------|----------------------|
----------------------|--------------------------|----------------------|
--1----4----3----1----|--0--0--0--0--0--0--0--0--|--1----4----3----1----|


  E  E  E  E  E  E  Q       Q    Q    Q    Q       W                 
-------------------------|----------------------|-------------------|
-------------------------|----------------------|-------------------|
-------------------------|----------------------|-------------------|
--0--0-----0--0----------|--1----4----3----1----|-------------------|


  Q    E  E  E  E  Q       E  E  E  E  Q    E  E     Q    Q    Q    Q     
------------------------|-------------------------|----------------------|
------------------------|-------------------------|----------------------|
------------------------|-------------------------|----------------------|
-------0--0--0----------|--0--0--0----------0--0--|--1----4----3----1----|


  W                   Q    E  E  E  E  Q       E  E  E  E  Q    E  E   
-------------------|------------------------|-------------------------|
-------------------|------------------------|-------------------------|
-------------------|------------------------|-------------------------|
-------------------|-------0--0--0----------|--0--0--0----------0--0--|


  Q    Q    Q    Q       W                   E   E  E   E  E   E  E   E   
----------------------|-------------------|------------------------------|
----------------------|-------------------|------------------------------|
----------------------|-------------------|----------------3p--0--2p--0--|
--1----4----3----1----|-------------------|--1p--0--2p--0----------------|


  E   E  E   E  E   E  E   E     E   E  E   E  E   E  E   E   
------------------------------|------------------------------|
------------------------------|------------------------------|
----------------3p--0--2p--0--|----------------3p--0--2p--0--|
--1p--0--2p--0----------------|--1p--0--2p--0----------------|


  E   E  E   E  E   E  E   E     E   E  E   E  E   E  E   E   
------------------------------|------------------------------|
------------------------------|------------------------------|
----------------3p--0--2p--0--|----------------3p--0--2p--0--|
--1p--0--2p--0----------------|--1p--0--2p--0----------------|


  E   E  E   E  E   E  E   E     E   E  E   E  E   E  E   E   
------------------------------|------------------------------|
------------------------------|------------------------------|
----------------3p--0--2p--0--|----------------3p--0--2p--0--|
--1p--0--2p--0----------------|--1p--0--2p--0----------------|


  E   E  E   E  E   E  E   E     Q    Q    Q    Q     
------------------------------|----------------------|
------------------------------|----------------------|
----------------3p--0--2p--0--|------------3----2----|
--1p--0--2p--0----------------|--1----2--------------|


  E   E  E   E  E   E  E   E     Q    Q    Q    Q       W                 
------------------------------|----------------------|-------------------|
------------------------------|----------------------|-------------------|
--3p--0--2p--0----------------|------------3----2----|-------------------|
----------------2p--0--1p--0--|--1----2--------------|-------------------|


  E  E  E  E  E  S S    E  E  E  E  E  S S    E  E  E  E  E  S S  
---------------------|---------------------|---------------------|
---------------------|---------------------|---------------------|
---------------------|---------------------|---------------------|
--2--4--4--4--4--L---|--2--4--4--4--4--L---|--2--4--4--4--4--L---|


  E  E  E  E  E  S S    E  E  E  E  E  S S    E  E  E  E  E  S S  
---------------------|---------------------|---------------------|
---------------------|---------------------|---------------------|
---------------------|---------------------|---------------------|
--2--4--4--4--4--L---|--2--4--4--4--4--L---|--2--4--4--4--4--L---|


  E  E  E  E  E  S S    E  E  E  E  E  S S    E  E  E  E  E  S S  
---------------------|---------------------|---------------------|
---------------------|---------------------|---------------------|
---------------------|---------------------|---------------------|
--2--4--4--4--4--L---|--2--4--4--4--4--L---|--2--4--4--4--4--L---|


  E  E  E  E  E  S S    E  E  E  E  E  S S    E  E  E  E  E  S S  
---------------------|---------------------|---------------------|
---------------------|---------------------|---------------------|
---------------------|---------------------|---------------------|
--2--4--4--4--4--L---|--2--4--4--4--4--L---|--2--4--4--4--4--L---|


  Q    Q    Q    Q       E   E  E   E  E   E  E   E     Q    Q    Q    Q     
----------------------|------------------------------|----------------------|
----------------------|------------------------------|----------------------|
------------3----2----|--3p--0--2p--0----------------|------------3----2----|
--1----2--------------|----------------2p--0--1p--0--|--1----2--------------|


  E   E  E   E  E   E  E   E     Q    Q    Q    Q       E  E  Q    Q    Q     
------------------------------|----------------------|-----------------------|
------------------------------|----------------------|-----------------------|
--3p--0--2p--0----------------|------------3----2----|-------------3----2----|
----------------2p--0--1p--0--|--3----4--------------|--0--0--0--------------|


  Q    Q    Q    Q       E  E  Q    Q    Q       Q    Q    Q    Q     
----------------------|-----------------------|----------------------|
----------------------|-----------------------|----------------------|
------------3----2----|-------------3----2----|------------3----2----|
--3----4--------------|--0--0--0--------------|--3----4--------------|


  E  E  Q    Q    Q       Q    Q    Q    Q       E  E  Q    Q    Q     
-----------------------|----------------------|-----------------------|
-----------------------|----------------------|-----------------------|
-------------3----2----|------------3----2----|-------------3----2----|
--0--0--0--------------|--3----4--------------|--0--0--0--------------|


  Q    Q    Q    Q       E   E  E   E  E   E  E   E     Q    Q    Q    Q     
----------------------|------------------------------|----------------------|
----------------------|------------------------------|----------------------|
------------3----2----|--3p--0--2p--0----------------|------------3----2----|
--1----2--------------|----------------2p--0--1p--0--|--1----2--------------|


  E   E  E   E  E   E  E   E     Q    Q    Q    Q    H         
------------------------------|-------------------------------|
------------------------------|-------------------------------|
--3p--0--2p--0----------------|-------------------------------|
----------------2p--0--1p--0--|--1----4----3----1-------------|


  Q    Q    Q    Q    H           Q    Q    Q    Q       Q    Q    H         
-------------------------------|----------------------|---------------------|
-------------------------------|----------------------|---------------------|
-------------------------------|----------------------|---------------------|
--1----4----3----1-------------|--1----4----3----1----|--0------------------|


  Q    E  E  E  E  Q       E  E  E  E  Q    E  E     Q    Q    Q    Q     
------------------------|-------------------------|----------------------|
------------------------|-------------------------|----------------------|
------------------------|-------------------------|----------------------|
-------0--0--0----------|--0--0--0----------0--0--|--1----4----3----1----|


  W                   Q    E  E  E  E  Q       E  E  E  E  Q    E  E   
-------------------|------------------------|-------------------------|
-------------------|------------------------|-------------------------|
-------------------|------------------------|-------------------------|
-------------------|-------0--0--0----------|--0--0--0----------0--0--|


  Q    Q    Q    Q       E  E  E  E  E  E  E  E     Q    Q    Q    Q     
----------------------|--------------------------|----------------------|
----------------------|--------------------------|----------------------|
----------------------|--------------------------|----------------------|
--1----4----3----1----|--0--0--0--0--0--0--0--0--|--1----4----3----1----|


  E  E  E  E  E  E  Q       Q    Q    Q    Q       W                 
-------------------------|----------------------|-------------------|
-------------------------|----------------------|-------------------|
-------------------------|----------------------|-------------------|
--0--0-----0--0----------|--1----4----3----1----|-------------------|


  Q    E  E  E  E  Q       E  E  E  E  Q    E  E     Q    Q    Q    Q     
------------------------|-------------------------|----------------------|
------------------------|-------------------------|----------------------|
------------------------|-------------------------|----------------------|
-------0--0--0----------|--0--0--0----------0--0--|--1----4----3----1----|


  W                   Q    E  E  E  E  Q       E  E  E  E  Q    E  E   
-------------------|------------------------|-------------------------|
-------------------|------------------------|-------------------------|
-------------------|------------------------|-------------------------|
-------------------|-------0--0--0----------|--0--0--0----------0--0--|


  Q    Q    Q    Q       E   E  E   E  E   E  E   E    
----------------------|------------------------------||
----------------------|------------------------------||
----------------------|--3p--0--2p--0----------------||
--1----4----3----1----|----------------2p--0--1p--0--||




Duration Legend
---------------
W - whole
H - half
Q - quarter
E - 8th
S - 16th
T - 32nd
X - 64th
. - note dotted
|-n-|  - n-tuplets


Tablature Legend
----------------
L - tied note
x - dead note
g - grace note
(n) - ghost note
> - accentuded note
NH - natural harmonic
AH - artificial harmonic
TH - tapped harmonic
SH - semi harmonic
PH - pitch harmonic
h - hammer on
p - pull off
b - bend
br - bendRelease
pb - preBend
pbr - preBendRelease
brb - bendReleaseBend
\n/ - tremolo bar dip
\n - tremolo bar dive
-/n - tremolo bar Release up
/n\ - tremolo bar inverted dip
/n - tremolo bar return
-\n - tremolo bar Release down
S - shift slide
s - legato slide
/ -  slide into from below or out of upwards
\ -  slide into from above or out of downwards
~ - vibrato
W - wide vibrato
tr - trill
TP - tremolo picking
T - tapping
S - slap
P - pop
< - fade in
^ - brush up
v - brush down

            
            
Suggest correction
Creating personal tab
Creating personal tab
You can edit any tab online and save it as your Personal.

You can edit, replace or remove any tab part or add personal notes – all changes will be seen only by you.

Personal tabs can be accessed anytime from any device, even offline.
Learn more »
Give kudos to tab author, rate the tab!
1 2 3 4 5
comments
print report bad tab
guest
You may want to rate the tab now too:
select rating
Wanna post a correction for this tab? Suggest correction