Oops, an error
Loading. Please wait.

The Coin Has A Say tab

version 1
version 1

Whole song

  • Just improved some minor things and made sure it i... Show more
3,445 views 15 this week
no commentswrite comment
1 2 3 4 5
x 4
add to favorites
×
Save as Personal and add changes to this tab that will be seen only by you. Learn more ›
×
You can save this tab as Personal to edit and correct it or add notes. All changes will be seen only by you. Learn more »
launch autoscroll
font size
0
reset
how to read this tab
guitar tuner
edit
Autoscroll
slow
fast
+/-
esc
set tempo
stop
-----------------------------------------
  The Coin Has A Say – Every Time I Die
-----------------------------------------
Tabbed by: millarso (Jake Miller)
E-mail: millarso2.0@gmail.com

Tuning: Drop C (a little different for ETID)

Guitar 1: Left Stereo
Guitar 2: Right Stereo

[SECTION 1A]
Guitar 1
D|-----------------------------------------------------------------------------|
A|-----------------------------------------------------------------------------|
F|---------------------------------5-4-----3-0---------------------------------|
C|-------------2-----------1-------5-4-5-0-3-0-----------------5-4-------------|
G|---------------3-----------3---------5-0-------------2-2---------5-3-4-------|
C|-----------------2-2-2-0-----2-0-------------2-2-3-3-----5-5-----------5-3-0-|
||
Guitar 2
D|-----------------------------------------------------------------------------|
A|-----------------------------------------------------------------------------|
F|---------------------------------5-4-----3-0---------------------------------|
C|-2-----------2-----------1-------5-4-5-0-3-0-----------------5-4-------------|
G|---3-----------3-----------3---------5-0-------------2-2---------5-3-4-------|
C|-----2-2-2-2-----2-2-2-0-----2-0-------------2-2-3-3-----5-5-----------5-3-0-|

Both Guitars
D|--------------------------------------------------------------|
A|--------------------------------------------------------------|
F|--------------------------------------------------------------|
C|-2-----------1-3---------------------------------5-4----------|
G|---3-----------3-----3-2-----------------2-2---------5-3-4-0--|
C|-----2-2-2-0---3-2-0-----5-4/8-\-2-2-3-3-----5-5-----------0--|

[SECTION 1B]
Both Guitars
D|-----------------------------------------------------------------|
A|-----------------------------------------------------------------|
F|---------------------5-4-----3-0---------------------------------|
C|-2-----------1-------5-4-5-0-3-0-----------------5-4-------------|
G|---3-----------3---------5-0-------------2-2---------5-3-4-------|
C|-----2-2-2-0-----2-0-------------2-2-3-3-----5-5-----------5-3-0-|

D|--------------------------------------------------------------|
A|--------------------------------------------------------------|
F|--------------------------------------------------------------|
C|-2-----------1-----------------------------------5-4----------|
G|---3-----------3-----3-2-----------------2-2---------5-3-4-0--|
C|-----2-2-2-0---3-2-0-----5-4/8-\-2-2-3-3-----5-5-----------0--|

[SECTION 2]
Both Guitars
D|-------------------------------------------------------------------|
A|-------------------------------------------------------------------|
F|--------------------------------------------------------5-4-----3b-|
C|--------------------------------------------------------5-4-5-2-3b-|
G|-------------------------2----------------------------0-----5-2----|
C|-5-2-2-2-2-2-0-2-2-2-2-0---5--2-5-2-2-2-2-2-0-2-2-2-2-0------------|

D|-------------------------------------------------------------|
A|-------------------------------------------------------------|
F|-----------------------------------------------------5-4-3-0-|
C|-------------------0-10-9-5-4-8\---------------------5-4-3-0-|
G|-------------------0-10-9-5-4-8\-------------------0---------|
C|-2-2-2-2-0-2-2-2-2-0-10-9-5-4-8\-2-2-2-2-0-2-2-2-2-0---------|

D|-------------------------------------------------------------|
A|-------------------------------------------------------------|
F|-------------------------------------------------------------|
C|-8-5---5-3-5---0-12-8---8-8-5---8-5---5-3-5---0-12-8---8-8-5-|
G|-8-5---5-3-5---0-12-8---8-8-5---8-5---5-3-5---0-12-8---8-8-5-|
C|-8-5---5-3-5---0-12-8---8-8-5---8-5---5-3-5---0-12-8---8-8-5-|

D|-------------------------------------------------------------------|
A|-------------------------------------------------------------------|
F|--------------------------------------------------------5-4-----3b-|
C|--------------------------------------------------------5-4-5-2-3b-|
G|-------------------------2----------------------------0-----5-2----|
C|-5-2-2-2-2-2-0-2-2-2-2-0---5--2-5-2-2-2-2-2-0-2-2-2-2-0------------|

D|-------------------------------------------------------------|
A|-------------------------------------------------------------|
F|-----------------------------------------------------5-4-3-0-|
C|-------------------0-10-9-5-4-8\---------------------5-4-3-0-|
G|-------------------0-10-9-5-4-8\-------------------0---------|
C|-2-2-2-2-0-2-2-2-2-0-10-9-5-4-8\-2-2-2-2-0-2-2-2-2-0---------|

D|-------------------------------------------------------------|
A|-------------------------------------------------------------|
F|-------------------------------------------------------------|
C|-8-5---5-3-5---0-12-8---8-8-5---8-5---5-3-5---0-12-8---8-8-5-|
G|-8-5---5-3-5---0-12-8---8-8-5---8-5---5-3-5---0-12-8---8-8-5-|
C|-8-5---5-3-5---0-12-8---8-8-5---8-5---5-3-5---0-12-8---8-8-5-|

[SECTION 3]
Guitar 1
D|---------------------------------------------------------------------------------|
A|---------------------------------------------------------------------------------|
F|-----------------------------------5-4-----------------------------------5-4-----|
C|-----------------------------------5-4-5-4-------------------------------5-4-----|
G|---------------------------------------5-4-----------------------------------5-4-|
C|-8\---(noise)---8\---(noise)---------------8\---(noise)---8\---(noise)-------5-4-|
||
Guitar 2
D|---------------------------------------------------------------------------------|
A|---------------------------------------------------------------------------------|
F|-----------------------------------5-4-----------------------------------5-4-----|
C|-------------------x-x---x-x---x-x-5-4--------------------------x-x------5-4-----|
G|-------------------x-x---x-x---x-x------------------------------x-x----------5-4-|
C|-8\-------------8\-x-x---x-x---x-x-----5-4-8\-------------8\----x-x----------5-4-|

Both Guitars
D|-------------------------------------------------------------|
A|-------------------------------------------------------------|
F|-------------------------------------------------------------|
C|-8-5---5-3-5---0-12-8---8-8-5---8-5---5-3-5---0-12-8---8-8-5-|
G|-8-5---5-3-5---0-12-8---8-8-5---8-5---5-3-5---0-12-8---8-8-5-|
C|-8-5---5-3-5---0-12-8---8-8-5---8-5---5-3-5---0-12-8---8-8-5-|

Guitar 1
D|-------------------------------------------------------------|
A|-------------------------------------------------------------|
F|-10-7----5-7-----14-10---10-7--10-7-----5-7-----14-10---10-7-|
C|--x-x----x-x------x--x----x-x---x-x-----x-x------x--x----x-x-|
G|--8-5----3-5-----12--8----8-5---8-5-----3-5-----12--8----8-5-|
C|-------------------------------------------------------------|
||
Guitar 2
D|-------------------------------------------------------------|
A|-------------------------------------------------------------|
F|-------------------------------------------------------------|
C|-8-5---5-3-5---0-12-8---8-8-5---8-5---5-3-5---0-12-8---8-8-5-|
G|-8-5---5-3-5---0-12-8---8-8-5---8-5---5-3-5---0-12-8---8-8-5-|
C|-8-5---5-3-5---0-12-8---8-8-5---8-5---5-3-5---0-12-8---8-8-5-|

[SECTION 4 / SOLO]
Both Guitars (Guitar 2 plays the parentheses only)
D|-------------------------------------------------------------------|
A|-------------------------------------------------------------------|
F|-------------------------------------------------------------------|
C|-------------------------------------------------------------------|
G|---------------------------2-------------------------------2-------|
C|-(5-2-2-2-2-2)-0-2-2-2-2-0---5-5-2-5-2-2-2-2-2-0-2-2-2-2-0---5-5-2-|
||
Solo Guitar (middle channel)
D|-------------------------------------------------------------|
A|------12------------------7/9-9------------------------------|
F|-9-------12--9--9/12-9~-\-7/9-9--9\--5-4-0---3--b4r3b4r3b4r3-|
C|-------------------------------------5-4---2-----------------|
G|-------------------------------------------------------------|
C|-------------------------------------------------------------|

Both Guitars
D|-----------------------------------------------------------------|
A|-----------------------------------------------------------------|
F|-----------------------------------------------------------------|
C|-----------------------------------------------------------------|
G|-------------------------2-------------------------------2-------|
C|-5-2-2-2-2-2-0-2-2-2-2-0---5-5-2-5-2-2-2-2-2-0-2-2-2-2-0---5-5-2-|
||
Solo Guitar
D|----------------------------------------------------------|
A|------12------------------------------------8---10-9-12-0-|
F|-/9-------12--9--9/12-b14r12b14-r12\9--10-9---9-----------|
C|----------------------------------------------------------|
G|----------------------------------------------------------|
C|----------------------------------------------------------|

Both Guitars
D|-----------------------------------------------------------------|
A|-----------------------------------------------------------------|
F|-----------------------------------------------------------------|
C|-----------------------------------------------------------------|
G|-------------------------5-------------------------------5-------|
C|-8-5-5-5-5-5-3-5-5-5-5-0---8-8-5-8-5-5-5-5-5-3-5-5-5-5-0---8-8-5-|
||
Solo Guitar
D|----------------------------------------------------10----10-10-13--------------15----\--|
A|-13b15r13-11----------------------------13b15r13-11-13b15-------16b18--15-13h15-18b20-\--|
F|--------------12--10-12b13r12-10-12b13--12b14r12-----------------------------------------|
C|-----------------------------------------------------------------------------------------|
G|-----------------------------------------------------------------------------------------|
C|-----------------------------------------------------------------------------------------|

Both Guitars
D|--------------------------------------------------------------------------------|
A|--------------------------------------------------------------------------------|
F|---------------------------------------------------------5-4-3-0----------------|
C|---------------------------------------------------------5-4-3-0-8-5---3-5------|
G|-------------------------2---------------------------------------8-5---3-5------|
C|-5-2-2-2-2-2-0-2-2-2-2-0---5-5-2-5-2-2-2-2-2-0-2-2-2-2-0---------8-5---3-5---8\-|
||
Solo Guitar
D|-----------------------------------------------------------------------------------------------|
A|-------------------------------------------------12------11b12r11--13-12-------11-8--6-8--11~~-|
F|-12-10------------------9b10r9-7-9b11r9-7-9--10------12------------------12-11-----------------|
C|-------12-10-11--------------------------------------------------------------------------------|
G|----------------11-----------------------------------------------------------------------------|
C|-------------------12-9------------------------------------------------------------------------|

Both Guitars
D|-----------------------------------------------------------------------|
A|-----------------------------------------------------------------------|
F|-------------------5-4-------------------------------5-4---------------|
C|-------------------5-4-5-4---------------------------5-4-5-4-8-5---3-5-|
G|-----------------------5-4-------------------------------5-4-8-5---3-5-|
C|---------8\----------------8\--------------8\----------------8-5---3-5-|
||
Solo Guitar
D|-------------------------------------------6\--------------------------|
A|-(11~~)--------------------2s3s2s3s2s3s2s3-6\--------------------------|
F|---------------------------2s3s2s3s2s3s2s3-6\--------------------------|
C|-----------------------------------------------------------------------|
G|-----------------------------------------------------------------------|
C|-----------------------------------------------------------------------|

[SECTION 5]
Both Guitars
D|-----------------------------------------------------------------|
A|-----------------------------------------------------------------|
F|---------------------5-4-----3-0---------------------------------|
C|-2-----------1-------5-4-5-0-3-0-----------------5-4-------------|
G|---3-----------3---------5-0-------------2-2---------5-3-4-------|
C|-----2-2-2-0-----2-0-------------2-2-3-3-----5-5-----------5-3-0-|

D|------------------------------------------------------------------------------------|
A|------------------------------------------------------------------------------------|
F|------------------------------------------------------------------------------------|
C|-2-----------1-----------------------------------5-4-------2---5~~------\\\\\\\\\\\-|
G|---3-----------3-----3-2-----------------2-2---------5-3-4--------------\pickslide\-|
C|-----2-2-2-0-----2-0-----5-4/8-\-2-2-3-3-----5-5------------------------\\\\\\\\\\\-|

D|-----------------------------------------------------------------|
A|-----------------------------------------------------------------|
F|---------------------5-4-----3-0---------------------------------|
C|-2-----------1-------5-4-5-0-3-0-----------------5-4-------------|
G|---3-----------3---------5-0-------------2-2---------5-3-4-------|
C|-----2-2-2-0-----2-0-------------2-2-3-3-----5-5-----------5-3-0-|

D|----------------------------------------------------------------------------|
A|----------------------------------------------------------------------------|
F|----------------------------------------------------------------------------|
C|-2-----------1-----------------------------------5-4-------2---5~~------12\-|
G|---3-----------3-----3-2-----------------2-2---------5-3-4--------------12\-|
C|-----2-2-2-0-----2-0-----5-4/8-\-2-2-3-3-----5-5------------------------12\-|

NOTE: Rhythm slows way down near end of SECTION 5

[SECTION 6]
Both Guitars
D|----------------------------------------------------------------------|
A|----------------------------------------------------------------------|
F|----------------------------------------------------------------------|
C|-8--5----3--5----12--8----8--5----8--5----3--5----12--8----0-10-9-5-4-|
G|-8--5----3--5----12--8----8--5----8--5----3--5----12--8----0-10-9-5-4-|
C|-8--5----3--5----12--8----8--5----8--5----3--5----12--8----0-10-9-5-4-|

D|-----------------------------------------------------------------------------|
A|-----------------------------------------------------------------------------|
F|-----------------------------------------------------------------------------|
C|-8b--0--2--2-----2--0--12\--2--0--0--0--2--2---------------2--2--0--0--0--2/-|
G|-8b--0--2--2-----2--0--12\--2--0--0--0--2--2--10-9-5-4-8\--2--2--0--0--0--2/-|
C|-8b--0--2--2-----2--0--12\--2--0--0--0--2--2--10-9-5-4-8\--2--2--0--0--0--2/-|

Guitar 1
D|---------------------------------|
A|---------------------------------|
F|---------------------------------|
C|-(2/)-----------2-----10-9-5-4-8-|
G|-(2/)-----------2-----10-9-5-4-8-|
C|-(2/)-12bbb-----2-----10-9-5-4-8-|
||
Guitar 2
D|---------------------------------|
A|---------------------------------|
F|---------------------------------|
C|-(2/)-12bbb-----2-----10-9-5-4-8-|
G|-(2/)-----------2-----10-9-5-4-8-|
C|-(2/)-----------2-----10-9-5-4-8-|


This song is fast paced and not in the typical tuning for ETID. I'm fairly confident on most of it,
but the solo might be a little spotty. There are some strange movements to it, and some of the vibrato
is probably whammied, so it is open to interpretation. Let me know if you seen anything worth changing.
Thanks,
millarso

************************************
| s   slide (w/ guitar slide)
| /   slide up
| \   slide down
| h   hammer-on
| p   pull-off
| ~   vibrato
| x   Mute note
| b   Bend
| br  Bend release
| brb Bend release bend

************************************
Suggest correction
Creating personal tab
Creating personal tab
You can edit any tab online and save it as your Personal.

You can edit, replace or remove any tab part or add personal notes – all changes will be seen only by you.

Personal tabs can be accessed anytime from any device, even offline.
Learn more »
comments
print report bad tab
guest
You may want to rate the tab now too:
select rating
Wanna post a correction for this tab? Suggest correction