Oops, an error
Loading. Please wait.

The Coin Has A Say Tab

version 2
version 2

Whole song

  • Just improved some minor things and made sure it i... Show more
1,078 views 42 this week
1 commentread comment
1 2 3 4 5
x 4
add to favorites
launch autoscroll
font size
0
reset
how to read this tab
guitar tuner
Autoscroll
slow
fast
+/-
esc
set tempo
stop
Help us to improve Ultimate-Guitar.com Take our survey!
×
Author
Difficulty
Tuning
intermediate
C G C F A D
About this tab version
Just improved some minor things and made sure it is as close to the live version as possible. Was this info helpful? Yes No
Every Time I Die – The Coin Has A Say

Album: Low Teens
Tuning: Drop C

[Intro]
D|-----------------|
A|-----------------|
F|-----------------|
C|-2---------------|
G|---3-------------|
C|-----2-2-2-2-2-2-|

[Main Riff]
D|---------------------------------------------------------------|
A|---------------------------------------------------------------|
F|---------------------5-4-----3---------------------------------|
C|-2-----------1-------5-4-5-4-3-----------------5-4-0-----------|
G|---3-----------3---------5-4-----------2-2-----------3-4-------|
C|-----2-2-2-2-----2-0-----------2-2-3-3-----5-5-----------5-4-0-|
           X 2
D|-----------------------------------------------------------|
A|-----------------------------------------------------------|
F|-----------------------------------------------------------|
C|-2-----------1-------5-4-----------------------5-4-0-------|
G|---3-----------3-----3-2-5-4-8---------2-2-----------3-4-0-|
C|-----2-2-2-2-----2-0-----5-4-8-2-2-3-3-----5-5-----------0-|

[Chorus Part]
D|-----------------------------------|
A|-----------------------------------|
F|-----------------------------------|
C|-----------------------------------|
G|-----------------------------------|
C|-5-2-2-2-2-2-0-2-2-2-2-2-8-5-5-0-5-|

D|-------------------------------------------------------------------|
A|-------------------------------------------------------------------|
F|-------------------------5-4-----3-3-------------------------------|
C|-------------------------5-4-5-4-3-3---------------------5-4-------|
G|-----------------------------5-4-------------------------3-2-5-4-8-|
C|-5-2-2-2-2-2-0-2-2-2-2-2-------------2-2-2-2-0-2-2-2-2-2-----5-4-8-|

D|-----------------------------|
A|-----------------------------|
F|---------------------5-4-----|
C|---------------------5-4-5-4-|
G|-------------------------5-4-|
C|-2-2-2-2-0-2-2-2-2-2---------|

[Bridge]
D|----------------------------|
A|----------------------------|
F|----------------------------|
C|---------------7------------|  x 2
G|-8-5----3-5----5-8----8-5---|
C|-8-5----3-5------8----8-5---|

[Chorus Part]
D|-----------------------------------|
A|-----------------------------------|
F|-----------------------------------|
C|-----------------------------------|
G|-----------------------------------|
C|-5-2-2-2-2-2-0-2-2-2-2-2-8-5-5-0-5-|

D|-------------------------------------------------------------------|
A|-------------------------------------------------------------------|
F|-------------------------5-4-----3-3-------------------------------|
C|-------------------------5-4-5-4-3-3---------------------5-4-------|
G|-----------------------------5-4-------------------------3-2-5-4-8-|
C|-5-2-2-2-2-2-0-2-2-2-2-2-------------2-2-2-2-0-2-2-2-2-2-----5-4-8-|

D|-----------------------------|
A|-----------------------------|
F|---------------------5-4-----|
C|---------------------5-4-5-4-|
G|-------------------------5-4-|
C|-2-2-2-2-0-2-2-2-2-2---------|

[Bridge]
D|----------------------------|
A|----------------------------|
F|----------------------------|
C|---------------7------------|
G|-8-5----3-5----5-8----8-5---|
C|-8-5----3-5------8----8-5---|

D|------------------------------|
A|------------------------------|
F|------------------------------|
C|---------------7--------------|
G|-8-5----3-5----5-8----8-5-----|
C|-8-5----3-5------8----8-5-8\0-|

[Spoken Word Part]
D|-------------------------------------------|
A|-------------------------------------------|
F|--------------5-4------------------5-4-----|
C|--------------5-4-5-4--------------5-4-5-4-|
G|------------------5-4------------------5-4-|
C|-8\0------------------8\0------------------|

[Bridge]
D|----------------------------|
A|----------------------------|
F|----------------------------|
C|---------------7------------|  x 4
G|-8-5----3-5----5-8----8-5---|
C|-8-5----3-5------8----8-5---|

Second Guitar joining in halfway through:

D|--------------------------|
A|--------------------------|
F|--------------------------|
C|---------------7----------|    x 2
G|-8-5----3-5------8----8-5-|
C|--------------------------|

[Solo]
D|-----------------------------------|
A|-----------------------------------|
F|-----------------------------------|
C|-----------------------------------|   x 4
G|-----------------------------------|
C|-5-2-2-2-2-2-0-2-2-2-2-2-8-5-5-0-5-|

D|-------------------------------|
A|-------------------------------|
F|-------------------------------|
C|-------------------------------|       x 2
G|-----------------------5-------|
C|-8-5-5-5-5-5-3-5-5-5-5---8-8-8-|

D|-----------------------------------|
A|-----------------------------------|
F|-----------------------------------|
C|-----------------------------------|
G|-----------------------------------|
C|-5-2-2-2-2-2-0-2-2-2-2-2-8-5-5-0-5-|

D|------------------------------------------------|
A|------------------------------------------------|
F|-------------------------5-4--------------------|
C|-------------------------5-4-5-4----------------|
G|-----------------------------5-4-8-5----3-5-----|
C|-5-2-2-2-2-2-0-2-2-2-2-2---------8-5----3-5-8\0-|

[Spoken Words Part 2]
D|--------------------------------------|
A|--------------------------------------|
F|--------------------------------------|
C|--------------5-4---------------------|
G|--------------3-2-5-4-----------------|
C|-8\0--------------5-4-8v-------8\0----|

D|--------------------|
A|--------------------|
F|-5-4----------------|
C|-5-4-5-4------------|
G|-----5-4-8-5----3-5-|
C|---------8-5----3-5-|

[Main Riff]
D|---------------------------------------------------------------|
A|---------------------------------------------------------------|
F|---------------------5-4-----3---------------------------------|
C|-2-----------1-------5-4-5-4-3-----------------5-4-0-----------|
G|---3-----------3---------5-4-----------2-2-----------3-4-------|
C|-----2-2-2-2-----2-0-----------2-2-3-3-----5-5-----------5-4-0-|
X 2
D|------------------------------------------------------------------|
A|------------------------------------------------------------------|
F|------------------------------------------------------------------|
C|-2-----------1-------5-4-----------------------5-4-0--------------|
G|---3-----------3-----3-2-5-4-8---------2-2-----------3-4-7----10v-|
C|-----2-2-2-2-----2-0-----5-4-8-2-2-3-3-----5-5--------------------|

[Breakdown]
D|----------------------------|
A|----------------------------|
F|----------------------------|
C|---------------7------------|
G|-8-5----3-5----5-8----8-5---|
C|-8-5----3-5------8----8-5---|

D|-----------------------------------------------------------|
A|-----------------------------------------------------------|
F|----------------------5-4----------------------------------|
C|---------------7------5-4-5-4------------------------------|
G|-8-5----3-5----5-8--------5-4---0-2-2----2-0---2-0-0-0-2-2-|
C|-8-5----3-5------8------------8\0-2-2----2-0-8\2-0-0-0-2-2-|

D|---------------------------|
A|---------------------------|
F|-5-4-----------------------|
C|-5-4-5-4-------------------|
G|-----5-4---2-2-0-0-0-2-----|
C|---------8\2-2-0-0-0-2-12--|

D|----------------|
A|----------------|
F|------5-4-------|
C|------5-4-5-4---|
G|-2--------5-4-8-|
C|-2------------8-|


************************************

| \  Slide down
| v  Vibrato

************************************
Suggest correction
comments
print report bad tab
1 comment total.
0 reply
antivyel1337 10 Sep 17, 2016 12:59 PM

Thanks for this!

guest
You may want to rate the tab now too:
select rating
Wanna post a correction for this tab? Suggest correction