Oops, an error
Loading. Please wait.

Touch Yourself tab

version 1
version 1

Whole song

Interactive

819 views 3 this week
1 commentread comment
1 2 3 4 5
x 3
add to favorites
×
Save as Personal and add changes to this tab that will be seen only by you. Learn more ›
×
You can save this tab as Personal to edit and correct it or add notes. All changes will be seen only by you. Learn more »
launch autoscroll
font size
0
reset
how to read this tab
guitar tuner
edit
Autoscroll
slow
fast
+/-
esc
set tempo
stop
-----------------------------------------------------------------
Touch Yourself - Every Time I Die
-----------------------------------------------------------------
Tabbed by: Jake Miller (millarso)
Email: millarso2.0@gmail.com
Tuning: Drop D

Section 1
Both Guitars
e|-----------------------------------------|
B|-----------------------------------------|
G|-----------------------------------------|
D|-5---2---5-3-5-6-5-3-5---2---5-3-5-6-9-6-| x2
A|-5---2---5-3-5-6-5-3-5---2---5-3-5-6-9-6-|
D|-5---2---5-3-5-6-5-3-5---2---5-3-5-6-9-6-|

Guitar 1
e|--------10--------------12--------------|
B|-10b12-----12-10b12-----15b17--17-17-17-|
G|----------------------------------------|
D|----------------------------------------|
A|----------------------------------------|
D|----------------------------------------|

Guitar 2
e|-------------------------------------------|
B|-------------------------------------------|
G|-------------------------------------------|
D|-9~------------(9~)-----////////////-------|
A|-9~------------(9~)-----/pick slide/-------|
D|-9~------------(9~)-----////////////-------|

Section 2 (x2)
Both Guitars
e|---------------------------------------------------|
B|---------------------------------------------------|
G|---------------------------------------------------|
D|-9-6-5-3-5-6-5-3-5---------9-6-5-3-5-6-6-6-2-2-2---|
A|-9-6-5-3-5-6-5-3-5---------9-6-5-3-5-6-6-6-2-2-2---|
D|-9-6-5-3-5-6-5-3-5-000000--9-6-5-3-5-6-6-6-2-2-2---|
                                                      2nd Ending
e|---------------------------------------------------|-------------------------|
B|---------------------------------------------------|-------------------------|
G|---------------------------------------------------|-------------------------|
D|-9-6-5-3-5-6-5-3-5---------5-3-5-6-5-3-5-3-5-6-9-6-|-5-3-5-6-5-3-------------|
A|-9-6-5-3-5-6-5-3-5---------5-3-5-6-5-3-5-3-5-6-9-6-|-5-3-5-6-5-3-6-6-6-2-2-2-|
D|-9-6-5-3-5-6-5-3-5-000000--5-3-5-6-5-3-5-3-5-6-9-6-|-5-3-5-6-5-3-6-6-6-2-2-2-|

Section 3 (x2)

Guitar 1
e|---------------------------------------------------------------|
B|---------------------------------------------------------------|
G|---------------------------------------------------------------|
D|-----------------------------------------------------5-------7-|
A|-----111---------------------------------------0h3h5---0h5h7---|
D|-000-----333-222-5-5-5-2-2-2---000-222-333-555-----------------|

Guitar 2
e|---------------------------------------------------------------|
B|---------------------------------------------------------------|
G|---------------------------------------------------------------|
D|---------------------------------------------------------------|
A|-----111---------------------------------------------3-------5-|
D|-000-----333-222-5-5-5-2-2-2---000-222-333-555-0h3h5---0h5h7---|

Both Guitars
                                                               2nd Ending
e|-----------------------------------------------------------|-------------|
B|-----------------------------------------------------------|-------------|
G|-----------------------------------------------------------|-------------|
D|-----------------------------------------------5-3-5-6-5-3-|-5-3-5-6-9-6-|
A|-----111-----------------------------3-------5-5-3-5-6-5-3-|-5-3-5-6-9-6-|
D|-000-----333-222-5-5-5-2-2-2---0h3h5---0h5h7---5-3-5-6-5-3-|-5-3-5-6-9-6-|

Section 4

Both Guitars
e|-----------------------------|
B|-----------------------------|
G|-----------------------------|
D|-5-3--5-6-5--3-5-3--5-6-9--6-| x2
A|-5-3--5-6-5--3-5-3--5-6-9--6-|
D|-5-3--5-6-5--3-5-3--5-6-9--6-|

"God saves every third person..."
e|------------------------------------|
B|------------------------------------|
G|------------------------------------|
D|------------------------6-6-6-2-2-2-|x2
A|-(pause/feedback)-------6-6-6-2-2-2-|
D|------------------------6-6-6-2-2-2-|

Section 5 (similar to Section 2) (x2)

Both Guitars
e|--------------------------------------------------|
B|--------------------------------------------------|
G|--------------------------------------------------|
D|-9-6-5-3-5-6-5-3-5--------9-6-5-3-5-6-6-6-2-2-2---|
A|-9-6-5-3-5-6-5-3-5--------9-6-5-3-5-6-6-6-2-2-2---|
D|-9-6-5-3-5-6-5-3-5-000000-9-6-5-3-5-6-6-6-2-2-2---|

                                                       2nd Ending
e|---------------------------------------------------|-------------------------|
B|---------------------------------------------------|-------------------------|
G|---------------------------------------------------|-------------------------|
D|-9-6-5-3-5-6-5-3-5---------5-3-5-6-5-3-5-3-5-6-9-6-|-5-3-5-6-5-3-5-3-5-6-9-6-|
A|-9-6-5-3-5-6-5-3-5---------5-3-5-6-5-3-5-3-5-6-9-6-|-5-3-5-6-5-3-5-3-5-6-9-6-|
D|-9-6-5-3-5-6-5-3-5-000000--5-3-5-6-5-3-5-3-5-6-9-6-|-5-3-5-6-5-3-5-3-5-6-9-6-|

Section 6 (similar to Section 1)

Both Guitars
e|------------------------------------------|
B|------------------------------------------|
G|------------------------------------------|
D|-5---2---5-3-5-6-5-3-5---2---5-3-5-6-9-6--| x2
A|-5---2---5-3-5-6-5-3-5---2---5-3-5-6-9-6--|
D|-5---2---5-3-5-6-5-3-5---2---5-3-5-6-9-6--|

End with...
e|-----------|
B|-----------|
G|-----------|
D|-9\--------|
A|-9\--------|
D|-9\--------|

Send me some feedback. I'm trying to tab out this whole album for your viewing pleasure. Thanks,
millarso

            
            
Suggest correction
Creating personal tab
Creating personal tab
You can edit any tab online and save it as your Personal.

You can edit, replace or remove any tab part or add personal notes – all changes will be seen only by you.

Personal tabs can be accessed anytime from any device, even offline.
Learn more »
Give kudos to tab author, rate the tab!
1 2 3 4 5
comments
print report bad tab
1 comment total.
0 reply
WCPhils 10 Feb 07, 2013 04:28 PM

This is really good

guest
You may want to rate the tab now too:
select rating
Wanna post a correction for this tab? Suggest correction