Oops, an error
Loading. Please wait.

Two Summers Tab

421 views 6 this week
1 commentread comment
1 2 3 4 5
1 last vote to show rating
add to favorites
launch autoscroll
font size
0
reset
how to read this tab
guitar tuner
Autoscroll
slow
fast
+/-
esc
set tempo
stop
Help us to improve Ultimate-Guitar.com Take our survey!
×
Author
Difficulty
Tuning
intermediate
D A D G B E
----------------------------------
  Two Summers – Every Time I Die
----------------------------------
Tabbed by: millarso (Jake Miller)
E-mail: millarso2.0@gmail.com

Tuning: Drop D

Guitar 1: Left Stereo
Guitar 2: Right Stereo

[INTRO]
Guitar 1
E|-------------|  |--------------|
B|-------------|  |--------------|
G|-------------|  |--------------|
D|-5-7-7-7-7-0-|x6|--------------|
A|-5-7-7-7-7-0-|  |-------3--0-3-|
D|-5-7-7-7-7-0-|  |-5h6h7--------|
||
Guitar 2
E|---------------------------------------|
B|---------------------------------------|
G|-5/7~----5/7-----12\7------------------|
D|-x-------x--------x-------------5----5-|
A|-3/5~----3/5-----10\5-----------3--0-3-|
D|--------------------------5h6h7--------|

[SECTION 1]
Guitar 1
E|-------------------------|  |--------------|
B|-------------------------|  |--------------|
G|-------------------------|  |-------7--5h7-|
D|-5-7-7-7--7-10-7-7-7-7-0-|x3|-------5--5---|
A|-5-7-7-7--7-10-7-7-7-7-0-|  |-5h6h7--------|
D|-5-7-7-7--7-10-7-7-7-7-0-|  |--------------|
||
Guitar 2
E|-------------------------|  |--------------|
B|-------------------------|  |--------------|
G|-------------------------|  |--------------|
D|-5-7-7-7--7-10-7-7-7-7-0-|x3|-------5--5---|
A|-5-7-7-7--7-10-7-7-7-7-0-|  |-------3--0h3-|
D|-5-7-7-7--7-10-7-7-7-7-0-|  |-5h6h7--------|

Both Guitars
E|-------------------------|  |---------------------|
B|-------------------------|  |---------------------|
G|-------------------------|  |-8-7-----------------|
D|-5-7-7-7--7-10-7-7-7-7-0-|x3|-8-7-10-7--10-7------|
A|-5-7-7-7--7-10-7-7-7-7-0-|  |-----10-7--10-7--0-0-|
D|-5-7-7-7--7-10-7-7-7-7-0-|  |-----------------0-0-|

E|-------------------------|  |-------------------------------------------|
B|-------------------------|  |-------------------------------------------|
G|-------------------------|  |-------5----5--8--7--5-----------------5v~-|
D|-5-7-7-7--7-10-7-7-7-7-0-|x3|-------5--7-5--8--7--5--7------------5-----|
A|-5-7-7-7--7-10-7-7-7-7-0-|  |----------7-------------7--3--5--5/7-------|
D|-5-7-7-7--7-10-7-7-7-7-0-|  |-5h6h7-------------------------------------|

[TRANSITION]
E|--------------|
B|--------------|
G|-------5----5-|
D|-5-7-7-5--7-5-|
A|-5-7-7----7---|
D|-5-7-7--------|

[SECTION 1]
Guitar 1
E|-------------------------|  |--------------|
B|-------------------------|  |--------------|
G|-------------------------|  |-------7--5h7-|
D|-5-7-7-7--7-10-7-7-7-7-0-|x3|-------5--5---|
A|-5-7-7-7--7-10-7-7-7-7-0-|  |-5h6h7--------|
D|-5-7-7-7--7-10-7-7-7-7-0-|  |--------------|
||
Guitar 2
E|-------------------------|  |--------------|
B|-------------------------|  |--------------|
G|-------------------------|  |--------------|
D|-5-7-7-7--7-10-7-7-7-7-0-|x3|-------5--5---|
A|-5-7-7-7--7-10-7-7-7-7-0-|  |-------3--0h3-|
D|-5-7-7-7--7-10-7-7-7-7-0-|  |-5h6h7--------|

Both Guitars
E|-------------------------|  |---------------------|
B|-------------------------|  |---------------------|
G|-------------------------|  |-8-7-----------------|
D|-5-7-7-7--7-10-7-7-7-7-0-|x3|-8-7-10-7--10-7------|
A|-5-7-7-7--7-10-7-7-7-7-0-|  |-----10-7--10-7--0-0-|
D|-5-7-7-7--7-10-7-7-7-7-0-|  |-----------------0-0-|

E|-------------------------|  |-------------------------------------------|
B|-------------------------|  |-------------------------------------------|
G|-------------------------|  |-------5----5--8--7--5-----------------5v~-|
D|-5-7-7-7--7-10-7-7-7-7-0-|x3|-------5--7-5--8--7--5--7------------5-----|
A|-5-7-7-7--7-10-7-7-7-7-0-|  |----------7-------------7--3--5--5/7-------|
D|-5-7-7-7--7-10-7-7-7-7-0-|  |-5h6h7-------------------------------------|

[TRANSITION 2]
Guitar 1
E|-----------------------|
B|-----------------------|
G|-(5~)---5-3---3----3---|
D|------------5----5---5-|
A|-----------------------|
D|-----------------------|
||
Guitar 2
E|-----------------------|
B|-----------------------|
G|-(5~)b-----------------|
D|-----------------------|
A|-----------------------|
D|-----------------------|

[SECTION 2]
Both Guitars
E|------------------|  |----------------|
B|------------------|  |----------------|
G|------------------|  |-------------5v~|
D|-3-5---5--5-3---3-|x3|---------3h5----|
A|-3-5---5--5-3---3-|  |-----3h5--------|
D|-3-5---5--5-3---3-|  |-3h5------------|

E|---------------------------------------------------------------------------------------------|
B|---------------------------------------------------------------------------------------------|
G|------------------------------------------------------------------------5v~---5-3---3----3---|
D|-3-5---5-5-5-3---3--3-5--5-5-5-5-3---3--3-5---5-5-5-3---3-0-----------------------5----5---5-|
A|-3-5---5-5-5-3---3--3-5--5-5-5-5-3---3--3-5---5-5-5-3---3-0-3-------5-7----------------------|
D|-3-5---5-5-5-3---3--3-5--5-5-5-5-3---3--3-5---5-5-5-3---3-0---5-6-7--------------------------|

E|----------------------------------------------------------|
B|----------------------------------------------------------|
G|----------------------------------------------------------|
D|-3-5---5--5-3---3--3-5---5-5-5-3---3--3-5---5-5-5-3---3-0-|
A|-3-5---5--5-3---3--3-5---5-5-5-3---3--3-5---5-5-5-3---3-0-|
D|-3-5---5--5-3---3--3-5---5-5-5-3---3--3-5---5-5-5-3---3-0-|

Guitar 1
E|------------------------10--------------|
B|-------------8v---10b12----12r10--8-8v~-|
G|-----------7----------------------------|
D|-----5-7/9------------------------------|
A|-5-7------------------------------------|
D|----------------------------------------|
||
Guitar 2
E|--------------------------------------|
B|-----------------------8--------------|
G|-------------5v---7b9-----9r7--5-5v~--|
D|---------3-5--------------------------|
A|-----3-5------------------------------|
D|-3-5----------------------------------|

E|--------------------------------------------------------------------------------------------|
B|--------------------------------------------------------------------------------------------|
G|-----------------------------------------------------------------------5v~---5-3---3----3---|
D|-3-5---5-5-5-3---3--3-5---5-5-5-3---3--3-5---5-5-5-3---3-0-----------------------5----5---5-|
A|-3-5---5-5-5-3---3--3-5---5-5-5-3---3--3-5---5-5-5-3---3-0-3-------5-7----------------------|
D|-3-5---5-5-5-3---3--3-5---5-5-5-3---3--3-5---5-5-5-3---3-0---5-6-7--------------------------|

[SECTION 1]
Guitar 1
E|-------------------------|  |--------------|
B|-------------------------|  |--------------|
G|-------------------------|  |-------7--5h7-|
D|-5-7-7-7--7-10-7-7-7-7-0-|x3|-------5--5---|
A|-5-7-7-7--7-10-7-7-7-7-0-|  |-5h6h7--------|
D|-5-7-7-7--7-10-7-7-7-7-0-|  |--------------|
||
Guitar 2
E|-------------------------|  |--------------|
B|-------------------------|  |--------------|
G|-------------------------|  |--------------|
D|-5-7-7-7--7-10-7-7-7-7-0-|x3|-------5--5---|
A|-5-7-7-7--7-10-7-7-7-7-0-|  |-------3--0h3-|
D|-5-7-7-7--7-10-7-7-7-7-0-|  |-5h6h7--------|

Both Guitars
E|-------------------------|  |---------------------|
B|-------------------------|  |---------------------|
G|-------------------------|  |-8-7-----------------|
D|-5-7-7-7--7-10-7-7-7-7-0-|x3|-8-7-10-7--10-7------|
A|-5-7-7-7--7-10-7-7-7-7-0-|  |-----10-7--10-7--0-0-|
D|-5-7-7-7--7-10-7-7-7-7-0-|  |-----------------0-0-|

E|-------------------------|  |-------------------------------------------|
B|-------------------------|  |-------------------------------------------|
G|-------------------------|  |-------5----5--8--7--5-----------------5v~-|
D|-5-7-7-7--7-10-7-7-7-7-0-|x3|-------5--7-5--8--7--5--7------------5-----|
A|-5-7-7-7--7-10-7-7-7-7-0-|  |----------7-------------7--3--5--5/7-------|
D|-5-7-7-7--7-10-7-7-7-7-0-|  |-5h6h7-------------------------------------|

[TRANSITION 3]
Guitar 1
E|------------------------------------------|
B|-8-6---6----6b7r6v~-----------------------|
G|-----7----7-------------------------------|
D|------------------------------------5-6-7-|
A|----------------------------0-3-4-5-3-4-5-|
D|----------------------------0-3-4-5-------|

Guitar 2
E|------------------------------------------|
B|------------------------------------------|
G|-5-3---3----3b4r3v~-----------------------|
D|-----5----5-------------------------------|
A|------------------------------------3-4-5-|
D|----------------------------0-3-4-5-------|

[SECTION 3]
Both Guitars
E|--------------------------------------------------------------------------------|
B|--------------------------------------------------------------------------------|
G|--------------------------------------------------------------------------------|
D|-0--0--0--0--0--0--0---------------------5-4-3----------------------------0--0--|
A|-0--0--0--0--0--0--0-------3-----0-5-----------5-4-3---------------3-4-5--0--0--|
D|-0--0--0--0--0--0--0--12\----5-6-----6-7-------------5-4-3-0-3-4-5--------0--0--|

E|-----------------------------------------------------0-|
B|-----------------------------------------------------0-|
G|-----------------------------------------------------0-|
D|---------------5-4-3----------------------------0----0-|
A|-3-----0-5-----------5-4-3---------------3-4-5--0------|
D|---5-6-----6-7-------------5-4-3-0-3-4-5--------0------|

E|--------------------------------------------------------|
B|--------------------------------------------------------|
G|--------------------------------------------------------|
D|---------------5-4-3----------------------------0--0--0-|
A|-3-----0-5-----------5-4-3---------------3-4-5--0--0--0-|
D|---5-6-----6-7-------------5-4-3-0-3-4-5--------0--0--0-|

Guitar 1
E|-----------------------------------------------------|
B|-----------------------------------------------------|
G|---------------7-6-5---------------------------------|
D|-5-------7-----------7-6-5---------------5-6-7--0--0-|
A|---5-6-7---6-7-------------5-4-3-0-3-4-5--------0--0-|
D|------------------------------------------------0--0-|
||
Guitar 2
E|-----------------------------------------------------|
B|-----------------------------------------------------|
G|-----------------------------------------------------|
D|---------------5-4-3----------------------------0--0-|
A|-3-----0-5-----------5-4-3---------------3-4-5--0--0-|
D|---5-6-----6-7-------------5-4-3-0-3-4-5--------0--0-|

Both Guitars
E|-------------------------------------------------------|
B|-------------------------------------------------------|
G|-------------------------------------------------------|
D|---------------5-4-3----------------------------0------|
A|-3-----0-5-----------5-4-3---------------3-4-5--0------|
D|---5-6-----6-7-------------5-4-3-0-3-4-5--------0------|

E|--------------------------------------------------------|
B|--------------------------------------------------------|
G|--------------------------------------------------------|
D|---------------5-4-3----------------------------0--0--0-|
A|-3-----0-5-----------5-4-3---------------3-4-5--0--0--0-|
D|---5-6-----6-7-------------5-4-3-0-3-4-5--------0--0--0-|

END

Riff-a-palooza. Hope you enjoy all the sweet guitar harmonies.
Please rate & comment.

************************************
| .   palm mute (below bar)
| /   slide up
| \   slide down
| h   hammer-on
| p   pull-off
| v   vibrato
| ~   Let note ring
| b   Bend
| r   Bend return

************************************
Suggest correction
Give kudos to tab author, rate the tab!
1 2 3 4 5
comments
print report bad tab
1 comment total.
0 reply
antivyel1337 10 Oct 10, 2016 06:13 PM

thanks for this

guest
You may want to rate the tab now too:
select rating
Wanna post a correction for this tab? Suggest correction