Oops, an error
Loading. Please wait.

Two Summers tab

version 2
version 2

Whole song

  • Includes every part for every guitar.

Interactive

442 views 3 this week
no commentswrite comment
1 2 3 4 5
3 more votes to show rating
add to favorites
×
Save as Personal and add changes to this tab that will be seen only by you. Learn more ›
×
You can save this tab as Personal to edit and correct it or add notes. All changes will be seen only by you. Learn more »
launch autoscroll
font size
0
reset
how to read this tab
guitar tuner
edit
Autoscroll
slow
fast
+/-
esc
set tempo
stop
About this tab version
Includes every part for every guitar. Was this info helpful? Yes No
[Intro GTR01]
E|-------------|-------------|-------------|-------------|
B|-------------|-------------|-------------|-------------|
G|-------------|-5-----------|-------------|-5-----------|
D|-5-7-7-7-7-7-|-5-7-7-7-7-7-|-5-7-7-7-7-7-|-5-7-7-7-7-7-|
A|-5-7-7-7-7-7-|---7-7-7-7-7-|-5-7-7-7-7-7-|---7-7-7-7-7-|
D|-5h7-7-7-7-7-|---7-7-7-7-7-|-5h7-7-7-7-7-|---7-7-7-7-7-|

E|-------------|-------------|----------------|
B|-------------|-------------|----------------|
G|-------------|-5-----------|-------5------5-|
D|-5-7-7-7-7-7-|-5-7-7-7-7-7-|-------5------5-|
A|-5-7-7-7-7-7-|---7-7-7-7-7-|----------------|
D|-5h7-7-7-7-7-|---7-7-7-7-7-|-5-6-7------7---|

[Intro GTR02]
E|-------------|-------------|-------------|-------------|
B|-------------|-------------|-------------|-------------|
G|-7-9---------|-------------|-12-9--------|-------------|
D|-------------|-------------|-------------|-------------|
A|-5/7---------|-------------|-10\7--------|-------------|
D|-------------|-------------|-------------|-------------|

E|-------------|-------------|----------------|
B|-------------|-------------|----------------|
G|-7-9---------|-------------|-------5------5-|
D|-------------|-------------|-------5------5-|
A|-5/7---------|-------------|----------------|
D|-------------|-------------|-5-6-7------7---|

[Main Riff GTR01]
E|-------------|-------------|-------------|-------------|
B|-------------|-------------|-------------|-------------|
G|-------------|-5-----------|-------------|-5-----------|
D|-5-7-7-7-7-7-|-5-7-7-7-7-7-|-5-7-7-7-7-7-|-5-7-7-7-7-7-|
A|-5-7-7-7-7-7-|---7-7-7-7-7-|-5-7-7-7-7-7-|---7-7-7-7-7-|
D|-5h7-7-7-7-7-|---7-7-7-7-7-|-5h7-7-7-7-7-|---7-7-7-7-7-|

E|-------------|-------------|----------------------|
B|-------------|-------------|----------------------|
G|-------------|-5-----------|----------12-------12-|
D|-5-7-7-7-7-7-|-5-7-7-7-7-7-|----------12-------12-|
A|-5-7-7-7-7-7-|---7-7-7-7-7-|----------------------|
D|-5h7-7-7-7-7-|---7-7-7-7-7-|-12-13-14-------14----|

E|-------------|-------------|-------------|-------------|
B|-------------|-------------|-------------|-------------|
G|-------------|-5-----------|-------------|-5-----------|
D|-5-7-7-7-7-7-|-5-7-7-7-7-7-|-5-7-7-7-7-7-|-5-7-7-7-7-7-|
A|-5-7-7-7-7-7-|---7-7-7-7-7-|-5-7-7-7-7-7-|---7-7-7-7-7-|
D|-5h7-7-7-7-7-|---7-7-7-7-7-|-5h7-7-7-7-7-|---7-7-7-7-7-|

E|-------------|-------------|----------------|--------------|
B|-------------|-------------|----------------|--------------|
G|-------------|-5-----------|-8-7-5------5---|--------------|
D|-5-7-7-7-7-7-|-5-7-7-7-7-7-|-8-7-5-7----5-7-|--------------|
A|-5-7-7-7-7-7-|---7-7-7-7-7-|-------7------7-|-0----0-------|
D|-5h7-7-7-7-7-|---7-7-7-7-7-|-------7------7-|-0----0-------|

E|-------------|-------------|-------------|-------------|
B|-------------|-------------|-------------|-------------|
G|-------------|-5-----------|-------------|-5-----------|
D|-5-7-7-7-7-7-|-5-7-7-7-7-7-|-5-7-7-7-7-7-|-5-7-7-7-7-7-|
A|-5-7-7-7-7-7-|---7-7-7-7-7-|-5-7-7-7-7-7-|---7-7-7-7-7-|
D|-5h7-7-7-7-7-|---7-7-7-7-7-|-5h7-7-7-7-7-|---7-7-7-7-7-|

E|-------------|-------------|----------------|
B|-------------|-------------|----------------|
G|-------------|-5-----------|-------5------5-|
D|-5-7-7-7-7-7-|-5-7-7-7-7-7-|-------5------5-|
A|-5-7-7-7-7-7-|---7-7-7-7-7-|----------------|
D|-5h7-7-7-7-7-|---7-7-7-7-7-|-5-6-7------7---|

[Main Riff GTR02]
E|-------------|-------------|-------------|-------------|
B|-------------|-------------|-------------|-------------|
G|-------------|-5-----------|-------------|-5-----------|
D|-5-7-7-7-7-7-|-5-7-7-7-7-7-|-5-7-7-7-7-7-|-5-7-7-7-7-7-|
A|-5-7-7-7-7-7-|---7-7-7-7-7-|-5-7-7-7-7-7-|---7-7-7-7-7-|
D|-5h7-7-7-7-7-|---7-7-7-7-7-|-5h7-7-7-7-7-|---7-7-7-7-7-|

E|-------------|-------------|----------------|
B|-------------|-------------|----------------|
G|-------------|-5-----------|-------5------5-|
D|-5-7-7-7-7-7-|-5-7-7-7-7-7-|-------5------5-|
A|-5-7-7-7-7-7-|---7-7-7-7-7-|----------------|
D|-5h7-7-7-7-7-|---7-7-7-7-7-|-5-6-7------7---|

E|-------------|-------------|-------------|-------------|
B|-------------|-------------|-------------|-------------|
G|-------------|-5-----------|-------------|-5-----------|
D|-5-7-7-7-7-7-|-5-7-7-7-7-7-|-5-7-7-7-7-7-|-5-7-7-7-7-7-|
A|-5-7-7-7-7-7-|---7-7-7-7-7-|-5-7-7-7-7-7-|---7-7-7-7-7-|
D|-5h7-7-7-7-7-|---7-7-7-7-7-|-5h7-7-7-7-7-|---7-7-7-7-7-|

E|-------------|-------------|----------------|--------------|
B|-------------|-------------|----------------|--------------|
G|-------------|-5-----------|-8-7-5------5---|--------------|
D|-5-7-7-7-7-7-|-5-7-7-7-7-7-|-8-7-5-7----5-7-|--------------|
A|-5-7-7-7-7-7-|---7-7-7-7-7-|-------7------7-|-0----0-------|
D|-5h7-7-7-7-7-|---7-7-7-7-7-|-------7------7-|-0----0-------|

E|-------------|-------------|-------------|-------------|
B|-------------|-------------|-------------|-------------|
G|-------------|-5-----------|-------------|-5-----------|
D|-5-7-7-7-7-7-|-5-7-7-7-7-7-|-5-7-7-7-7-7-|-5-7-7-7-7-7-|
A|-5-7-7-7-7-7-|---7-7-7-7-7-|-5-7-7-7-7-7-|---7-7-7-7-7-|
D|-5h7-7-7-7-7-|---7-7-7-7-7-|-5h7-7-7-7-7-|---7-7-7-7-7-|

E|-------------|-------------|----------------|
B|-------------|-------------|----------------|
G|-------------|-5-----------|-------5------5-|
D|-5-7-7-7-7-7-|-5-7-7-7-7-7-|-------5------5-|
A|-5-7-7-7-7-7-|---7-7-7-7-7-|----------------|
D|-5h7-7-7-7-7-|---7-7-7-7-7-|-5-6-7------7---|

[Bridge Both GTRs]
E|------------------|---------------------|-----------------|
B|------------------|---------------------|-----------------|
G|-8----7----5------|-5-------------------|------5----------|
D|-8----7----5------|-5-------------------|-5---------------|
A|------------------|-----------3----5----|-----------------|
D|----------------7-|------7--------------|-----------------|

E|----------------|
B|----------------|
G|-------5------5-|
D|-------5------5-|
A|----------------|
D|-5-6-7------7---|

[Main Riff GTR01]
E|-------------|-------------|-------------|-------------|
B|-------------|-------------|-------------|-------------|
G|-------------|-5-----------|-------------|-5-----------|
D|-5-7-7-7-7-7-|-5-7-7-7-7-7-|-5-7-7-7-7-7-|-5-7-7-7-7-7-|
A|-5-7-7-7-7-7-|---7-7-7-7-7-|-5-7-7-7-7-7-|---7-7-7-7-7-|
D|-5h7-7-7-7-7-|---7-7-7-7-7-|-5h7-7-7-7-7-|---7-7-7-7-7-|

E|-------------|-------------|----------------------|
B|-------------|-------------|----------------------|
G|-------------|-5-----------|----------12-------12-|
D|-5-7-7-7-7-7-|-5-7-7-7-7-7-|----------12-------12-|
A|-5-7-7-7-7-7-|---7-7-7-7-7-|----------------------|
D|-5h7-7-7-7-7-|---7-7-7-7-7-|-12-13-14-------14----|

E|-------------|-------------|-------------|-------------|
B|-------------|-------------|-------------|-------------|
G|-------------|-5-----------|-------------|-5-----------|
D|-5-7-7-7-7-7-|-5-7-7-7-7-7-|-5-7-7-7-7-7-|-5-7-7-7-7-7-|
A|-5-7-7-7-7-7-|---7-7-7-7-7-|-5-7-7-7-7-7-|---7-7-7-7-7-|
D|-5h7-7-7-7-7-|---7-7-7-7-7-|-5h7-7-7-7-7-|---7-7-7-7-7-|

E|-------------|-------------|----------------|--------------|
B|-------------|-------------|----------------|--------------|
G|-------------|-5-----------|-8-7-5------5---|--------------|
D|-5-7-7-7-7-7-|-5-7-7-7-7-7-|-8-7-5-7----5-7-|--------------|
A|-5-7-7-7-7-7-|---7-7-7-7-7-|-------7------7-|-0----0-------|
D|-5h7-7-7-7-7-|---7-7-7-7-7-|-------7------7-|-0----0-------|

E|-------------|-------------|-------------|-------------|
B|-------------|-------------|-------------|-------------|
G|-------------|-5-----------|-------------|-5-----------|
D|-5-7-7-7-7-7-|-5-7-7-7-7-7-|-5-7-7-7-7-7-|-5-7-7-7-7-7-|
A|-5-7-7-7-7-7-|---7-7-7-7-7-|-5-7-7-7-7-7-|---7-7-7-7-7-|
D|-5h7-7-7-7-7-|---7-7-7-7-7-|-5h7-7-7-7-7-|---7-7-7-7-7-|

E|-------------|-------------|----------------|
B|-------------|-------------|----------------|
G|-------------|-5-----------|-------5------5-|
D|-5-7-7-7-7-7-|-5-7-7-7-7-7-|-------5------5-|
A|-5-7-7-7-7-7-|---7-7-7-7-7-|----------------|
D|-5h7-7-7-7-7-|---7-7-7-7-7-|-5-6-7------7---|

[Main Riff GTR02]
E|-------------|-------------|-------------|-------------|
B|-------------|-------------|-------------|-------------|
G|-------------|-5-----------|-------------|-5-----------|
D|-5-7-7-7-7-7-|-5-7-7-7-7-7-|-5-7-7-7-7-7-|-5-7-7-7-7-7-|
A|-5-7-7-7-7-7-|---7-7-7-7-7-|-5-7-7-7-7-7-|---7-7-7-7-7-|
D|-5h7-7-7-7-7-|---7-7-7-7-7-|-5h7-7-7-7-7-|---7-7-7-7-7-|

E|-------------|-------------|----------------|
B|-------------|-------------|----------------|
G|-------------|-5-----------|-------5------5-|
D|-5-7-7-7-7-7-|-5-7-7-7-7-7-|-------5------5-|
A|-5-7-7-7-7-7-|---7-7-7-7-7-|----------------|
D|-5h7-7-7-7-7-|---7-7-7-7-7-|-5-6-7------7---|

E|-------------|-------------|-------------|-------------|
B|-------------|-------------|-------------|-------------|
G|-------------|-5-----------|-------------|-5-----------|
D|-5-7-7-7-7-7-|-5-7-7-7-7-7-|-5-7-7-7-7-7-|-5-7-7-7-7-7-|
A|-5-7-7-7-7-7-|---7-7-7-7-7-|-5-7-7-7-7-7-|---7-7-7-7-7-|
D|-5h7-7-7-7-7-|---7-7-7-7-7-|-5h7-7-7-7-7-|---7-7-7-7-7-|

E|-------------|-------------|----------------|--------------|
B|-------------|-------------|----------------|--------------|
G|-------------|-5-----------|-8-7-5------5---|--------------|
D|-5-7-7-7-7-7-|-5-7-7-7-7-7-|-8-7-5-7----5-7-|--------------|
A|-5-7-7-7-7-7-|---7-7-7-7-7-|-------7------7-|-0----0-------|
D|-5h7-7-7-7-7-|---7-7-7-7-7-|-------7------7-|-0----0-------|

E|-------------|-------------|-------------|-------------|
B|-------------|-------------|-------------|-------------|
G|-------------|-5-----------|-------------|-5-----------|
D|-5-7-7-7-7-7-|-5-7-7-7-7-7-|-5-7-7-7-7-7-|-5-7-7-7-7-7-|
A|-5-7-7-7-7-7-|---7-7-7-7-7-|-5-7-7-7-7-7-|---7-7-7-7-7-|
D|-5h7-7-7-7-7-|---7-7-7-7-7-|-5h7-7-7-7-7-|---7-7-7-7-7-|

E|-------------|-------------|----------------|
B|-------------|-------------|----------------|
G|-------------|-5-----------|-------5------5-|
D|-5-7-7-7-7-7-|-5-7-7-7-7-7-|-------5------5-|
A|-5-7-7-7-7-7-|---7-7-7-7-7-|----------------|
D|-5h7-7-7-7-7-|---7-7-7-7-7-|-5-6-7------7---|

[Bridge Both GTRs]
E|------------------|---------------------|-----------------|
B|------------------|---------------------|-----------------|
G|-8----7----5------|-5-------------------|------5----------|
D|-8----7----5------|-5-------------------|-5---------------|
A|------------------|-----------3----5----|-----------------|
D|----------------7-|------7--------------|-----------------|

E|----------------|
B|----------------|
G|-------5------5-|
D|-------5------5-|
A|----------------|
D|-5-6-7------7---|

[Bridge 2 GTR01]
E|------------------|
B|------------------|
G|-5\3---3------3---|
D|-----5------5---5-|
A|------------------|
D|------------------|

[Chorus GTR01]
E|----------|----------|----------|----------|----------|----------|
B|----------|----------|----------|----------|----------|----------|
G|----------|----------|----------|----------|----------|----------|
D|-3-5----5-|-5-3----3-|-3-5----5-|-5-3----3-|-3-5----5-|-5-3----3-|
A|-3-5----5-|-5-3----3-|-3-5----5-|-5-3----3-|-3-5----5-|-5-3----3-|
D|-3-5----5-|-5-3----3-|-3-5----5-|-5-3----3-|-3-5----5-|-5-3----3-|

E|-------------|------------|
B|-------------|------------|
G|-------------|-5----------|
D|-----------5-|------------|
A|-----3/5-7---|------------|
D|-5-7---------|------------|

E|----------|----------|----------|----------|----------|----------|
B|----------|----------|----------|----------|----------|----------|
G|----------|----------|----------|----------|----------|----------|
D|-3-5----5-|-5-3----3-|-3-5----5-|-5-3----3-|-3-5----5-|-5-3----3-|
A|-3-5----5-|-5-3----3-|-3-5----5-|-5-3----3-|-3-5----5-|-5-3----3-|
D|-3-5----5-|-5-3----3-|-3-5----5-|-5-3----3-|-3-5----5-|-5-3----3-|

E|-------------|------------|------------------|
B|-------------|------------|------------------|
G|-------------|-5----------|-5\3---3------3---|
D|-------------|------------|-----5------5---5-|
A|-3-------5-7-|------------|------------------|
D|---5-6-7-----|------------|------------------|

E|----------|----------|----------|----------|----------|----------|
B|----------|----------|----------|----------|----------|----------|
G|----------|----------|----------|----------|----------|----------|
D|-3-5----5-|-5-3----3-|-3-5----5-|-5-3----3-|-3-5----5-|-5-3----3-|
A|-3-5----5-|-5-3----3-|-3-5----5-|-5-3----3-|-3-5----5-|-5-3----3-|
D|-3-5----5-|-5-3----3-|-3-5----5-|-5-3----3-|-3-5----5-|-5-3----3-|

E|-------------------|-------------------|----------------|-------------------|
B|-------------------|-------------------|----------15----|-------------------|
G|-------------------|-12----------------|-14b15----------|-15r14----12----12-|
D|----------------12-|-------------------|----------------|-------------------|
A|-------10/12-14----|-------------------|----------------|-------------------|
D|-12-14-------------|-------------------|----------------|-------------------|

E|----------|----------|----------|----------|----------|----------|
B|----------|----------|----------|----------|----------|----------|
G|----------|----------|----------|----------|----------|----------|
D|-3-5----5-|-5-3----3-|-3-5----5-|-5-3----3-|-3-5----5-|-5-3----3-|
A|-3-5----5-|-5-3----3-|-3-5----5-|-5-3----3-|-3-5----5-|-5-3----3-|
D|-3-5----5-|-5-3----3-|-3-5----5-|-5-3----3-|-3-5----5-|-5-3----3-|

E|-------------|------------|------------------|
B|-------------|------------|------------------|
G|-------------|-5----------|-5\3---3------3---|
D|-------------|------------|-----5------5---5-|
A|-3-------5-7-|------------|------------------|
D|---5-6-7-----|------------|------------------|

[Chorus GTR02]
E|----------|----------|----------|----------|----------|----------|
B|----------|----------|----------|----------|----------|----------|
G|----------|----------|----------|----------|----------|----------|
D|-3-5----5-|-5-3----3-|-3-5----5-|-5-3----3-|-3-5----5-|-5-3----3-|
A|-3-5----5-|-5-3----3-|-3-5----5-|-5-3----3-|-3-5----5-|-5-3----3-|
D|-3-5----5-|-5-3----3-|-3-5----5-|-5-3----3-|-3-5----5-|-5-3----3-|

E|-------------|------------|
B|-------------|------------|
G|-------------|-5----------|
D|-----------5-|------------|
A|-----3/5-7---|------------|
D|-5-7---------|------------|

E|----------|----------|----------|----------|----------|----------|
B|----------|----------|----------|----------|----------|----------|
G|----------|----------|----------|----------|----------|----------|
D|-3-5----5-|-5-3----3-|-3-5----5-|-5-3----3-|-3-5----5-|-5-3----3-|
A|-3-5----5-|-5-3----3-|-3-5----5-|-5-3----3-|-3-5----5-|-5-3----3-|
D|-3-5----5-|-5-3----3-|-3-5----5-|-5-3----3-|-3-5----5-|-5-3----3-|

E|-------------|------------|------------------|
B|-------------|------------|------------------|
G|-------------|-5----------|-5\3---3------3---|
D|-------------|------------|-----5------5---5-|
A|-3-------5-7-|------------|------------------|
D|---5-6-7-----|------------|------------------|

E|----------|----------|----------|----------|----------|----------|
B|----------|----------|----------|----------|----------|----------|
G|----------|----------|----------|----------|----------|----------|
D|-3-5----5-|-5-3----3-|-3-5----5-|-5-3----3-|-3-5----5-|-5-3----3-|
A|-3-5----5-|-5-3----3-|-3-5----5-|-5-3----3-|-3-5----5-|-5-3----3-|
D|-3-5----5-|-5-3----3-|-3-5----5-|-5-3----3-|-3-5----5-|-5-3----3-|

E|-------------|------------|-------------|---------------|
B|-------------|------------|--------8----|---------------|
G|-------------|-5----------|-7b8---------|-8r7----5----5-|
D|-----------5-|------------|-------------|---------------|
A|-----3/5-7---|------------|-------------|---------------|
D|-5-7---------|------------|-------------|---------------|

E|----------|----------|----------|----------|----------|----------|
B|----------|----------|----------|----------|----------|----------|
G|----------|----------|----------|----------|----------|----------|
D|-3-5----5-|-5-3----3-|-3-5----5-|-5-3----3-|-3-5----5-|-5-3----3-|
A|-3-5----5-|-5-3----3-|-3-5----5-|-5-3----3-|-3-5----5-|-5-3----3-|
D|-3-5----5-|-5-3----3-|-3-5----5-|-5-3----3-|-3-5----5-|-5-3----3-|

E|-------------|------------|------------------|
B|-------------|------------|------------------|
G|-------------|-5----------|-5\3---3------3---|
D|-------------|------------|-----5------5---5-|
A|-3-------5-7-|------------|------------------|
D|---5-6-7-----|------------|------------------|

[Main Riff GTR01]
E|-------------|-------------|-------------|-------------|
B|-------------|-------------|-------------|-------------|
G|-------------|-5-----------|-------------|-5-----------|
D|-5-7-7-7-7-7-|-5-7-7-7-7-7-|-5-7-7-7-7-7-|-5-7-7-7-7-7-|
A|-5-7-7-7-7-7-|---7-7-7-7-7-|-5-7-7-7-7-7-|---7-7-7-7-7-|
D|-5h7-7-7-7-7-|---7-7-7-7-7-|-5h7-7-7-7-7-|---7-7-7-7-7-|

E|-------------|-------------|----------------------|
B|-------------|-------------|----------------------|
G|-------------|-5-----------|----------12-------12-|
D|-5-7-7-7-7-7-|-5-7-7-7-7-7-|----------12-------12-|
A|-5-7-7-7-7-7-|---7-7-7-7-7-|----------------------|
D|-5h7-7-7-7-7-|---7-7-7-7-7-|-12-13-14-------14----|

E|-------------|-------------|-------------|-------------|
B|-------------|-------------|-------------|-------------|
G|-------------|-5-----------|-------------|-5-----------|
D|-5-7-7-7-7-7-|-5-7-7-7-7-7-|-5-7-7-7-7-7-|-5-7-7-7-7-7-|
A|-5-7-7-7-7-7-|---7-7-7-7-7-|-5-7-7-7-7-7-|---7-7-7-7-7-|
D|-5h7-7-7-7-7-|---7-7-7-7-7-|-5h7-7-7-7-7-|---7-7-7-7-7-|

E|-------------|-------------|----------------|--------------|
B|-------------|-------------|----------------|--------------|
G|-------------|-5-----------|-8-7-5------5---|--------------|
D|-5-7-7-7-7-7-|-5-7-7-7-7-7-|-8-7-5-7----5-7-|--------------|
A|-5-7-7-7-7-7-|---7-7-7-7-7-|-------7------7-|-0----0-------|
D|-5h7-7-7-7-7-|---7-7-7-7-7-|-------7------7-|-0----0-------|

E|-------------|-------------|-------------|-------------|
B|-------------|-------------|-------------|-------------|
G|-------------|-5-----------|-------------|-5-----------|
D|-5-7-7-7-7-7-|-5-7-7-7-7-7-|-5-7-7-7-7-7-|-5-7-7-7-7-7-|
A|-5-7-7-7-7-7-|---7-7-7-7-7-|-5-7-7-7-7-7-|---7-7-7-7-7-|
D|-5h7-7-7-7-7-|---7-7-7-7-7-|-5h7-7-7-7-7-|---7-7-7-7-7-|

E|-------------|-------------|----------------|
B|-------------|-------------|----------------|
G|-------------|-5-----------|-------5------5-|
D|-5-7-7-7-7-7-|-5-7-7-7-7-7-|-------5------5-|
A|-5-7-7-7-7-7-|---7-7-7-7-7-|----------------|
D|-5h7-7-7-7-7-|---7-7-7-7-7-|-5-6-7------7---|

[Main Riff GTR02]
E|-------------|-------------|-------------|-------------|
B|-------------|-------------|-------------|-------------|
G|-------------|-5-----------|-------------|-5-----------|
D|-5-7-7-7-7-7-|-5-7-7-7-7-7-|-5-7-7-7-7-7-|-5-7-7-7-7-7-|
A|-5-7-7-7-7-7-|---7-7-7-7-7-|-5-7-7-7-7-7-|---7-7-7-7-7-|
D|-5h7-7-7-7-7-|---7-7-7-7-7-|-5h7-7-7-7-7-|---7-7-7-7-7-|

E|-------------|-------------|----------------|
B|-------------|-------------|----------------|
G|-------------|-5-----------|-------5------5-|
D|-5-7-7-7-7-7-|-5-7-7-7-7-7-|-------5------5-|
A|-5-7-7-7-7-7-|---7-7-7-7-7-|----------------|
D|-5h7-7-7-7-7-|---7-7-7-7-7-|-5-6-7------7---|

E|-------------|-------------|-------------|-------------|
B|-------------|-------------|-------------|-------------|
G|-------------|-5-----------|-------------|-5-----------|
D|-5-7-7-7-7-7-|-5-7-7-7-7-7-|-5-7-7-7-7-7-|-5-7-7-7-7-7-|
A|-5-7-7-7-7-7-|---7-7-7-7-7-|-5-7-7-7-7-7-|---7-7-7-7-7-|
D|-5h7-7-7-7-7-|---7-7-7-7-7-|-5h7-7-7-7-7-|---7-7-7-7-7-|

E|-------------|-------------|----------------|--------------|
B|-------------|-------------|----------------|--------------|
G|-------------|-5-----------|-8-7-5------5---|--------------|
D|-5-7-7-7-7-7-|-5-7-7-7-7-7-|-8-7-5-7----5-7-|--------------|
A|-5-7-7-7-7-7-|---7-7-7-7-7-|-------7------7-|-0----0-------|
D|-5h7-7-7-7-7-|---7-7-7-7-7-|-------7------7-|-0----0-------|

E|-------------|-------------|-------------|-------------|
B|-------------|-------------|-------------|-------------|
G|-------------|-5-----------|-------------|-5-----------|
D|-5-7-7-7-7-7-|-5-7-7-7-7-7-|-5-7-7-7-7-7-|-5-7-7-7-7-7-|
A|-5-7-7-7-7-7-|---7-7-7-7-7-|-5-7-7-7-7-7-|---7-7-7-7-7-|
D|-5h7-7-7-7-7-|---7-7-7-7-7-|-5h7-7-7-7-7-|---7-7-7-7-7-|

E|-------------|-------------|----------------|
B|-------------|-------------|----------------|
G|-------------|-5-----------|-------5------5-|
D|-5-7-7-7-7-7-|-5-7-7-7-7-7-|-------5------5-|
A|-5-7-7-7-7-7-|---7-7-7-7-7-|----------------|
D|-5h7-7-7-7-7-|---7-7-7-7-7-|-5-6-7------7---|

[Bridge Both GTRs]
E|------------------|---------------------|-----------------|
B|------------------|---------------------|-----------------|
G|-8----7----5------|-5-------------------|------5----------|
D|-8----7----5------|-5-------------------|-5---------------|
A|------------------|-----------3----5----|-----------------|
D|----------------7-|------7--------------|-----------------|

[Interlude GTR01]
E|-------------------------|-------------------------|-------------|------------|---------|----------|
B|-------------------------|-------------------------|-------------|------------|---------|----------|
G|-12\10----10-------10b11r|-10----------------------|-------------|------------|---------|----------|
D|-------12-------12-------|-------------------------|---------5-6-|-7----------|---------|----------|
A|-------------------------|-------------------------|-0-3-4-5-3-4-|-5----------|-0-0-0-0-|-0-0-0----|
D|-------------------------|-------------------------|-0-3-4-5-----|------------|-0-0-0-0-|-0-0-0-12\|

[Interlude GTR02]
E|------------------|------------------|-------------|------------|---------|----------|
B|------------------|------------------|-------------|------------|---------|----------|
G|-5\3---3------3b4r|-3----------------|-------------|------------|---------|----------|
D|-----5------5-----|------------------|-------------|------------|---------|----------|
A|------------------|------------------|---------3-4-|-5----------|-0-0-0-0-|-0-0-0----|
D|------------------|------------------|-0-3-4-5-----|------------|-0-0-0-0-|-0-0-0-12\|

[Breakdown GTR01]
E|-----------------|-----------------|------------------|--------------|
B|-----------------|-----------------|------------------|--------------|
G|-----------------|-----------------|------------------|--------------|
D|---------------5-|-4-3-------------|------------------|--------------|
A|-3-------5-------|-----5-4-3-------|---------3-4-5----|----0--0------|
D|---5-6-7---6-7---|-----------5-4-3-|-0-3-4-5----------|----0--0------|

E|-----------------|-----------------|------------------|--------------|
B|-----------------|-----------------|------------------|--------------|
G|-----------------|-----------------|------------------|--------------|
D|---------------5-|-4-3-------------|------------------|--------------|
A|-3-------5-------|-----5-4-3-------|---------3-4-5----|----0---------|
D|---5-6-7---6-7---|-----------5-4-3-|-0-3-4-5----------|----0---------|

E|-----------------|-----------------|------------------|--------------|
B|-----------------|-----------------|------------------|--------------|
G|-----------------|-----------------|------------------|--------------|
D|---------------5-|-4-3-------------|------------------|--------------|
A|-3-------5-------|-----5-4-3-------|---------3-4-5----|----0--0--0---|
D|---5-6-7---6-7---|-----------5-4-3-|-0-3-4-5----------|----0--0--0---|

E|-----------------|-----------------|------------------|
B|-----------------|-----------------|------------------|
G|-----------------|-----------------|------------------|
D|---------------5-|-4-3-------------|------------------|
A|-3-------5-------|-----5-4-3-------|---------3-4-5----|
D|---5-6-7---6-7---|-----------5-4-3-|-0-3-4-5----------|

E|-------------------------|-------------------------|------------------------|--------------|
B|-------------------------|-------------------------|------------------------|--------------|
G|-------------------------|-------------------------|------------------------|--------------|
D|----------------------12-|-11-10-------------------|------------------------|--------------|
A|-10----------12----------|-------12-11-10----------|------------10-11-12----|----0----0----|
D|----12-13-14----13-14----|----------------12-11-10-|-0-10-11-12-------------|----0----0----|

E|-----------------|-----------------|------------------|--------------|
B|-----------------|-----------------|------------------|--------------|
G|-----------------|-----------------|------------------|--------------|
D|---------------5-|-4-3-------------|------------------|--------------|
A|-3-------5-------|-----5-4-3-------|---------3-4-5----|----0---------|
D|---5-6-7---6-7---|-----------5-4-3-|-0-3-4-5----------|----0---------|

E|-----------------|-----------------|------------------|--------------|
B|-----------------|-----------------|------------------|--------------|
G|-----------------|-----------------|------------------|--------------|
D|---------------5-|-4-3-------------|------------------|--------------|
A|-3-------5-------|-----5-4-3-------|---------3-4-5----|----0--0--0---|
D|---5-6-7---6-7---|-----------5-4-3-|-0-3-4-5----------|----0--0--0---|

[Breakdown GTR02]
E|-----------------|-----------------|------------------|--------------|
B|-----------------|-----------------|------------------|--------------|
G|-----------------|-----------------|------------------|--------------|
D|---------------5-|-4-3-------------|------------------|--------------|
A|-3-------5-------|-----5-4-3-------|---------3-4-5----|----0--0------|
D|---5-6-7---6-7---|-----------5-4-3-|-0-3-4-5----------|----0--0------|

E|-----------------|-----------------|------------------|--------------|
B|-----------------|-----------------|------------------|--------------|
G|-----------------|-----------------|------------------|--------------|
D|---------------5-|-4-3-------------|------------------|--------------|
A|-3-------5-------|-----5-4-3-------|---------3-4-5----|----0---------|
D|---5-6-7---6-7---|-----------5-4-3-|-0-3-4-5----------|----0---------|

E|-----------------|-----------------|------------------|--------------|
B|-----------------|-----------------|------------------|--------------|
G|-----------------|-----------------|------------------|--------------|
D|---------------5-|-4-3-------------|------------------|--------------|
A|-3-------5-------|-----5-4-3-------|---------3-4-5----|----0--0--0---|
D|---5-6-7---6-7---|-----------5-4-3-|-0-3-4-5----------|----0--0--0---|

E|-----------------|-----------------|------------------|
B|-----------------|-----------------|------------------|
G|-----------------|-----------------|------------------|
D|---------------5-|-4-3-------------|------------------|
A|-3-------5-------|-----5-4-3-------|---------3-4-5----|
D|---5-6-7---6-7---|-----------5-4-3-|-0-3-4-5----------|

E|-----------------|-----------------|------------------|--------------|
B|-----------------|-----------------|------------------|--------------|
G|-----------------|-----------------|------------------|--------------|
D|---------------5-|-4-3-------------|------------------|--------------|
A|-3-------5-------|-----5-4-3-------|---------3-4-5----|----0--0------|
D|---5-6-7---6-7---|-----------5-4-3-|-0-3-4-5----------|----0--0------|

E|-----------------|-----------------|------------------|--------------|
B|-----------------|-----------------|------------------|--------------|
G|-----------------|-----------------|------------------|--------------|
D|---------------5-|-4-3-------------|------------------|--------------|
A|-3-------5-------|-----5-4-3-------|---------3-4-5----|----0---------|
D|---5-6-7---6-7---|-----------5-4-3-|-0-3-4-5----------|----0---------|

E|-----------------|-----------------|------------------|--------------|
B|-----------------|-----------------|------------------|--------------|
G|-----------------|-----------------|------------------|--------------|
D|---------------5-|-4-3-------------|------------------|--------------|
A|-3-------5-------|-----5-4-3-------|---------3-4-5----|----0--0--0---|
D|---5-6-7---6-7---|-----------5-4-3-|-0-3-4-5----------|----0--0--0---|


************************************

| h  Hammer-on
| /  Slide up
| \  Slide down
| r  Release
| b  Bend

************************************

            
            
Suggest correction
Creating personal tab
Creating personal tab
You can edit any tab online and save it as your Personal.

You can edit, replace or remove any tab part or add personal notes – all changes will be seen only by you.

Personal tabs can be accessed anytime from any device, even offline.
Learn more »
Give kudos to tab author, rate the tab!
1 2 3 4 5
comments
print report bad tab
guest
You may want to rate the tab now too:
select rating
Wanna post a correction for this tab? Suggest correction