Oops, an error
Loading. Please wait.

Who Invited The Russian Soldier tab

version 2
version 2

Whole song

Interactive

2,347 views 3 this week
2 commentsread comments
1 2 3 4 5
2 more votes to show rating
add to favorites
×
Save as Personal and add changes to this tab that will be seen only by you. Learn more ›
×
You can save this tab as Personal to edit and correct it or add notes. All changes will be seen only by you. Learn more »
launch autoscroll
font size
0
reset
how to read this tab
guitar tuner
edit
Autoscroll
slow
fast
+/-
esc
set tempo
stop
Author
verse
e|----------------------------------------------------------------------------|
B|-------------------0--0-0-----0--0-0---------------------0--0-0----0--0-0---|
G|-------------------4--3-0-----4--3-0---------------------4--3-0----4--3-0---|
D|-1--3-4---1--3-4----------------------1--3-4---1--3-4-----------------------|
A|-1--3-4---1--3-4----------------------1--3-4---1--3-4-----------------------|
D|-1--3-4---1--3-4----------------------1--3-4---1--3-4-----------------------|


e|---------------------------------------------------------------------------|
B|---------------------------------------------------------------------------|
G|--------------------------------------pm.............----------------------|
D|-1--3-4---1--3-4---6--6--6--6--6--6---6-6-6-6-6-6-6-6----------------------|
A|-1--3-4---1--3-4---4--4--4--4--4--4---4-4-4-4-4-4-4-4----------------------|
D|-1--3-4---1--3-4-----------------------------------------------------------|

e|-----------------------------------------------------------------|
B|-------------------0------------------------------------0--0-0---|
G|-------------------3------------------------------------4--3-0---|
D|-1--3-4---1--3-4----------1--3-4---1--3-4---4--3-1---------------|
A|-1--3-4---1--3-4----------1--3-4---1--3-4---4--3-1---------------|
D|-1--3-4---1--3-4----------1--3-4---1--3-4---4--3-1---------------|

e|---------------------------------------------------------------------------|
B|-------------------0-------------------------------------------------------|
G|-------------------3---------------------------------------pm.............-|
D|-1--3-4---1--3-4-------1--3-4---1--3-4---4--3-1--6--6--6---6-6-6-6-6-6-6-6-|
A|-1--3-4---1--3-4-------1--3-4---1--3-4---4--3-1--4--4--4---4-4-4-4-4-4-4-4-|
D|-1--3-4---1--3-4-------1--3-4---1--3-4---4--3-1----------------------------|

e|-----------------------------------------------------------------|
B|-------------------0------------------------------------0--0-0---|
G|-------------------3------------------------------------4--3-0---|
D|-1--3-4---1--3-4----------1--3-4---1--3-4---4--3-1---------------|
A|-1--3-4---1--3-4----------1--3-4---1--3-4---4--3-1---------------|
D|-1--3-4---1--3-4----------1--3-4---1--3-4---4--3-1---------------|

e|-------------------------|
B|-------------------0-----|
G|-------------------3-----|
D|-1--3-4---1--3-4---------|
A|-1--3-4---1--3-4---------|
D|-1--3-4---1--3-4---------|

guitar 1
e|------------------------------------|
B|------------------------------------|
G|------------------------------------|
D|------------------------------------|
A|-4-0-3-2-1---4-0-3-2-1---4-0-3-2-1--|repeat ? times
D|------------------------------------|

guitar 2
e|------------------------------------|
B|------------------------------------|
G|------------------------------------|
D|------------------------------------|
A|------------------------------------|
D|--/slide\--11~~~--------------------|

both guitars
e|------------------------------------|
B|------------------------------------|
G|------------------------------------|
D|------------------------------------|
A|-4-0-3-2-1---4-0-3-2-1---4-0-3-2-1--|repeat ? times
D|------------------------------------|

e|------------------------------------|
B|--------------------------------0---|
G|--------------------------------3---|
D|-----------------3-2-1--------------|
A|-----------------3-2-1--------------|
D|--/slide\--/11---3-2-1--------------|


nifty riff
(i was too lazy to figure out the timings but they should be easy enough)
both guitars
e|------------------------------------|
B|------------------------------------|
G|------------------------------------|
D|-4-0-3-2-1---4-0-3-2-1---4-0-3-2-1--|
A|-4-0-3-2-1---4-0-3-2-1---4-0-3-2-1--|repeat ? times
D|-4-0-3-2-1---4-0-3-2-1---4-0-3-2-1--|

with the occasianal in the middle (end with this also)
e|------------------------------------|
B|------------------------------------|
G|pm...............-------------------|
D|--0--0-0---0--0-0-------------------|
A|--0--0-0---0--0-0-------------------|
D|--0--0-0---0--0-0-------------------|


guitar 1
e|-------------------------|
B|-------------------------|
G|-------------------------|
D|-1--3-4---1--3-4---------|
A|-1--3-4---1--3-4---------|
D|-1--3-4---1--3-4---------|

guitar 2
e|-----------------------------------|
B|-----------------0--0-0---0--0-0---|
G|-----------------4--3-0---4--3-0---|
D|-----------------------------------|
A|-----------------------------------|
D|-----------------------------------|

verse
both guitars
e|-------------------------------------|
B|-------------------0--0-0---0--0-0---|
G|-------------------4--3-0---4--3-0---|
D|-1--3-4---1--3-4---------------------|
A|-1--3-4---1--3-4---------------------|
D|-1--3-4---1--3-4---------------------|


e|---------------------------------------------------------------------------|
B|---------------------------------------------------------------------------|
G|--------------------------------------pm.............----------------------|
D|-1--3-4---1--3-4---6--6--6--6--6--6---6-6-6-6-6-6-6-6----------------------|
A|-1--3-4---1--3-4---4--4--4--4--4--4---4-4-4-4-4-4-4-4----------------------|
D|-1--3-4---1--3-4-----------------------------------------------------------|

e|-----------------------------------------------------------------|
B|-------------------0------------------------------------0--0-0---|
G|-------------------3------------------------------------4--3-0---|
D|-1--3-4---1--3-4----------1--3-4---1--3-4---4--3-1---------------|
A|-1--3-4---1--3-4----------1--3-4---1--3-4---4--3-1---------------|
D|-1--3-4---1--3-4----------1--3-4---1--3-4---4--3-1---------------|

e|---------------------------------------------------------------------------|
B|-------------------0-------------------------------------------------------|
G|-------------------3---------------------------------------pm.............-|
D|-1--3-4---1--3-4-------1--3-4---1--3-4---4--3-1--6--6--6---6-6-6-6-6-6-6-6-|
A|-1--3-4---1--3-4-------1--3-4---1--3-4---4--3-1--4--4--4---4-4-4-4-4-4-4-4-|
D|-1--3-4---1--3-4-------1--3-4---1--3-4---4--3-1----------------------------|

e|-----------------------------------------------------------------|
B|-------------------0------------------------------------0--0-0---|
G|-------------------3------------------------------------4--3-0---|
D|-1--3-4---1--3-4----------1--3-4---1--3-4---4--3-1---------------|
A|-1--3-4---1--3-4----------1--3-4---1--3-4---4--3-1---------------|
D|-1--3-4---1--3-4----------1--3-4---1--3-4---4--3-1---------------|

e|------------------------------------|
B|------------------------------------|
G|------------------------------------|
D|------------------------------------|
A|-4-0-3-2-1---4-0-3-2-1---4-0-3-2-1--|repeat ? times
D|------------------------------------|

e|--------------------------------------|
B|----------------------------------0---|
G|----------------------------------3---|
D|-----------------3-2-1----------------|
A|-----------------3-2-1----------------|
D|--/slide\--/11---3-2-1----------------|


e|------------------------------------|
B|------------------------------------|
G|------------------------------------|
D|-4-0-3-2-1---4-0-3-2-1---4-0-3-2-1--|
A|-4-0-3-2-1---4-0-3-2-1---4-0-3-2-1--|repeat ? times
D|-4-0-3-2-1---4-0-3-2-1---4-0-3-2-1--|


BREAKDOWN

guitar 1 repeat throughout
e|-------------------------------------------------------------------|
B|-0-0-0-0-0-0-0-0-0-0-0-0-0-0-0-0-0-0-0-0-0-0-0-0-0-0-0-0-0-0-0-0---|
G|-4-4-4-4-4-4-4-4-4-4-4-4-4-4-4-4-3-3-3-3-3-3-3-3-0-0-0-0-0-0-0-0---|
D|-------------------------------------------------------------------|
A|-------------------------------------------------------------------|
D|-------------------------------------------------------------------|

guitar 2
e|-------------------------------------------------------------------|
B|-------------------------------------------------------------------|
G|-------------------------------------------------------------------|
D|-0---0--0-0--0-----0---0-0--0--0-0--0-----0---0-0--0-----0-0-------|
A|-0---0--0-0--0-----0---0-0--0--0-0--0-----0---0-0--0-----0-0-------|
D|-0---0--0-0--0-----0---0-0--0--0-0--0-----0---0-0--0-----0-0-------|


overdubbed guitar
e|-------------------------------------------------------------------|
B|-------------------------------------------------------------------|
G|-------------------------------------------------------------------|
D|--4-4-4-4-4-4-4-4-4-4-4-4-4-4-4-4-3-3-3-3-3-3-3-3-3-3-3-3-3-3-3-3--|
A|-------------------------------------------------------------------|
D|-------------------------------------------------------------------|

guitar 2
e|------------------------------------------------------|
B|------------------------------------------------------|
G|------------------------------------------------------|
D|---0--0-0--0-----0---0-0--0--0-0--0-----0---0-0--0----|
A|---0--0-0--0-----0---0-0--0--0-0--0-----0---0-0--0----|
D|---0--0-0--0-----0---0-0--0--0-0--0-----0---0-0--0----|

e|---------------------------------------------|
B|---------------------------------------------|
G|---------------------------------------------|
D|-0---0-0--0---0-0--0---0-0--0----0-0--3-2-1--|
A|-0---0-0--0---0-0--0---0-0--0----0-0--3-2-1--|
D|-0---0-0--0---0-0--0---0-0--0----0-0--3-2-1--|
Suggest correction
Creating personal tab
Creating personal tab
You can edit any tab online and save it as your Personal.

You can edit, replace or remove any tab part or add personal notes – all changes will be seen only by you.

Personal tabs can be accessed anytime from any device, even offline.
Learn more »
Give kudos to tab author, rate the tab!
1 2 3 4 5
comments
print report bad tab
2 comments total.
+1 reply
BlaketheHero 20 Jan 26, 2010 11:44 AM

Pretty sure the chromatic riffs (one of the 5th string and the the one based on the 6th string) are tabbed wrong on both tabs for this song.

It should actually be written as 41321 41321 41321 41321, as opposed to how it has been written with an open string as 40321 40321 40321 40321. This applies to both variants of the chromatic riff.

Like I said I am pretty sure that is how it is, listen for the pulse of the Bb and the Eb in both those riffs. That is just what my ears are telling me!

0 reply
millarso 2,604 Apr 10, 2013 05:53 PM

Blake is definitely correct.

guest
You may want to rate the tab now too:
select rating
Wanna post a correction for this tab? Suggest correction