Oops, an error
Loading. Please wait.

Bed Bath And Beyonce bass

746 views 1 this week
no commentswrite comment
1 2 3 4 5
2 more votes to show rating
add to favorites
×
Save as Personal and add changes to this tab that will be seen only by you. Learn more ›
×
You can save this tab as Personal to edit and correct it or add notes. All changes will be seen only by you. Learn more »
launch autoscroll
font size
0
reset
guitar tuner
edit
Autoscroll
slow
fast
+/-
esc
set tempo
stop
Since there aren't really any tabs for this band, I decided to make one :) I'm pretty 
sure this is 99% correct since this song is not a difficult song at all for bass or 
guitar. (Also figure out the tempo on your own, really it's NOT a hard song at all.)

Tuning: C#
F#
C#
G#
C#

INTRO: 4x
F#------------------------|
C#------------------------|
G#------8------------8----|
C#-0-0-0-0-0-0--0-0-0-0-0-|

VERSE: (For open part when you play the 8th fret, play it 2x)
F#---------------------------------------------------------------------|
C#---------------------------------------------------------------------|
G#--------------------------------------------------8------------8-----|
C#-1-1-1-1--1-1-1-1-1-1--1--1--1-1-1-1-1-1-1-1--0-0-0-0-0-0--0-0-0-0-0-|

PRE-CHORUS (Let these notes ring)
F#------------------|
C#------------------|
G#------------------|
C#-5~~~~~~~8~~~~~~~~

Chorus: 2x
F#--------------------------------------------------------|
C#--------------------------------------------------------|
G#--------------------------------------------------------|
C#-0(16x)-8(16x)-3(16x)-8(16x)-0(16X)-8(16x)-7(16x)-8(16--|x)

2ND VERSE: 4x
F#------------------------------------------|
C#------------------------------------------|
G#------------------------------------------|
C#-0-00-000000-0-00---00-000000-0-00-3/12/3-|

PRE-CHORUS (Let these notes ring)
F#------------------|
C#------------------|
G#------------------|
C#-5~~~~~~~8~~~~~~~~

OTHER CHORUS( I'm not sure what to call this part)
F#-------------------------------------------------|
C#-------------------------------------------------|
G#-------------------------------------------------|
C#-5(16x)-8(16x)-0(16x)-3(16x)-5-5-5-5~~~~~8-8-8-8-|
(^Strumming part is played 2x)

2ND VERSE (AGAIN): 4x
F#------------------------------------------|
C#------------------------------------------|
G#------------------------------------------|
C#-0-00-000000-0-00---00-000000-0-00-3/12/3-|

Last Chorus: 2x
F#--------------------------------------------------------|
C#--------------------------------------------------------|
G#--------------------------------------------------------|
C#-0(16x)-8(16x)-3(16x)-8(16x)-0(16X)-8(16x)-7(16x)-8(16--|x)

And then it finishes it off with this:
F#------------|
C#------------|
G#-------8----|
C#-0-0-00-0-0-|

Hope you liked this tab please if want any requests email me at jeffreyrivero@aol.com :)

            
            
Suggest correction
Creating personal tab
Creating personal tab
You can edit any tab online and save it as your Personal.

You can edit, replace or remove any tab part or add personal notes – all changes will be seen only by you.

Personal tabs can be accessed anytime from any device, even offline.
Learn more »
Give kudos to tab author, rate the tab!
1 2 3 4 5
comments
print report bad tab
guest
Wanna post a correction for this tab? Suggest correction