Oops, an error
Loading. Please wait.

Cough Cough Bass Tab

version 1
version 1

Whole song

8,829 views 12 this week
2 commentsread comments
1 2 3 4 5
excellent!
x 7
add to favorites
launch autoscroll
font size
0
reset
guitar tuner
Autoscroll
slow
fast
+/-
esc
set tempo
stop
Help us to improve Ultimate-Guitar.com Take our survey!
×
Difficulty
intermediate
Everything Everything - Cough Cough (Bass Tab)

Lead-in: (Synth)
G|----|----|----|----||----|----||
D|----|----|----|----||--2-|--5-||
A|2---|0-0-|----|----||----|----||
E|----|----|0---|3-3-||0--2|3--5||
~|BAD!.................MORE!....||

Chorus: (Part 1)
G|----------11--------------|-------------------------||
D|------------1212--------0-|-------------------------||
A|------10--------------0--0|2-2---2-----1-1--1-2\4---||
E|3-3\10------------3-3-----|----2------------------2-||x2
~|..................AND THAT..........................||

Chorus: (Part 2)
G|--------------------22-------------|--------------3-4\6--||
D|5--5-4-----5-4---------4-55-44-22-0|--------------------4||
A|-------5-------5-------------------|2-22-1-2--1-1--------||
E|---------3-------3-----------------|---------------------||
~|OH!

Ending: (Break)
G|----------------|-----------------|3-4\6--||
D|2\5--------2--4-|4\9--7--5--2--4-4|------4||
A|----------------|-----------------|-------||
E|----------------|-----------------|-------||
Suggest correction
comments
print report bad tab
2 comments total.
0 reply
poppleis 10 wrote on March 26 2013, 11:46 pm

Everything Everything - Cough Cough (Bass Tab)

Lead-in: (Synth)
G|----|----|----|----||----|----||
D|----|----|----|----||--2-|--5-||
A|2---|0-0-|----|----||----|----||
E|----|----|0---|3-3-||0--2|3--5||
~|BAD!.................MORE!....||

Chorus: (Part 1)
G|----------11--------------|----2-4------------------||
D|------------1212--------0-|-------------------------||
A|------10--------------0--0|2-2--------1-1--1-2\4---||
E|3-3\10------------3-3-----|-----------------------2-||x2
~|..................AND THAT..........................||

Chorus: (Part 2)
G|--------------------22-------------|--4-----------3-4\6--||
D|---5-4-----5-4---------4-5-44-22-0-|--------------------4||
A|-------5-------5-------------------|2--2--1-1------------||
E|-3-------3-------3-----------------|---------------------||
~|OH!

Ending: (Break)
G|----------------|-----------------|3-4\6--||
D|2\5--------2--4-|4\9--7--5--2--4-4|------4||
A|----------------|-----------------|-------||
E|----------------|-----------------|-------||

0 reply
poppleis 10 wrote on March 26 2013, 11:47 pm

Everything Everything - Cough Cough (Bass Tab)

Lead-in: (Synth)
G|----|----|----|----||----|----||
D|----|----|----|----||--2-|--5-||
A|2---|0-0-|----|----||----|----||
E|----|----|0---|3-3-||0--2|3--5||
~|BAD!.................MORE!....||

Chorus: (Part 1)
G|----------11--------------|----2-4------------------||
D|------------1212--------0-|-------------------------||
A|------10--------------0--0|2-2--------1-1--1-2\4---||
E|3-3\10------------3-3-----|-----------------------2-||x2
~|..................AND THAT..........................||

Chorus: (Part 2)
G|--------------------22-------------|--4-----------3-4\6--||
D|---5-4-----5-4---------4-5-44-22-0-|--------------------4||
A|-------5-------5-------------------|2--2--1-1------------||
E|-3-------3-------3-----------------|---------------------||
~|OH!

Ending: (Break)
G|----------------|-----------------|3-4\6--||
D|2\5--------2--4-|4\9--7--5--2--4-4|------4||
A|----------------|-----------------|-------||
E|----------------|-----------------|-------||

guest
You may want to rate the tab now too:
select rating
Wanna post a correction for this tab? Suggest correction