Oops, an error
Loading. Please wait.

Distant Past tab

version 1
version 1

Whole song

4,627 views 39 this week
1 commentread comment
1 2 3 4 5
x 9
add to favorites
×
Save as Personal and add changes to this tab that will be seen only by you. Learn more ›
×
You can save this tab as Personal to edit and correct it or add notes. All changes will be seen only by you. Learn more »
launch autoscroll
font size
0
reset
how to read this tab
guitar tuner
edit
Autoscroll
slow
fast
+/-
esc
set tempo
stop
Author
Difficulty
intermediate
Distant Past- Everything Everything

e|----------------------------------|
B|----------------------------------|
G|-------------------------4--------|
D|--7-------------4-5--4-5----------|
A|-----5-7----5-7-------------------|
E|----------------------------------|

 [Verse 1]
e|-------------------------|
B|-------------------------|
G|-------------------------|
D|-------------------------|
A|--0-0-0-2-2--------------|
E|--------------0-0-0-3-3--|  (repeat 6 times)

A
Drag my tongue across the sand
Em
So happy just to crawl across the land
A
Soon I'll be the best around
Em
I'm gonna keep my plunder underground
A
Hard flesh cold against the rain
Em
Dust billowing around my brazen brain
A
Saw off all my stinking limbs
Em
Blood dripping down my sunken money chin

A
Baby can you leave it in the (distant past)?
Baby can you leave it in the (distant past)?
D
Girl, I'm from the very very (distant past)
Girl, I'm from the very very (distant past)
A
Baby can you leave me in the (distant past)?
Baby can you leave me in the (distant past)?
D
Girl, I wanna take you to the (distant past)
Girl, I wanna take you to the (distant past)

 [Chorus]
e|---12-12-12-12-12-12-12-12-12-12-12-12-12-12-12-12-12-12-12-12--|
B|---12-12-12-14-14-15-15-15-15-15-14-14-14-14-14-15-15-15-15-15--|
G|---12-12-12-12-12-12-12-12-12-12-14-14-14-14-14-12-12-12-12-12--|
D|----------------------------------------------------------------|
A|----------------------------------------------------------------|
E|----------------------------------------------------------------| repeat 4 times

Em                                         A        G
Take me to the distant past, I want to go back
Em                                             A       G
Save me from the distant past, I want this so bad
Em                                         A        G
Take me to the distant past, I want to go back
Em                                             A       G
Save me from the distant past, I want this so bad

 [Verse 2]
e|------------------------------------------------|
B|------------------------------------------------|
G|-------------------------4----------------------|
D|--7-------------4-5--4-5------------------------|
A|-----5-7----5-7---------------------------------|
E|------------------------------------------------|

e|-------------------------|
B|-------------------------|
G|-------------------------|
D|-------------------------|
A|--0-0-0-2-2--------------|
E|--------------0-0-0-3-3--|  (repeat 4 times)

A
Two thumbs across the Rubicon
Em
Slack jaw but you'll never be passing it on
A
Plug hole, down the drain you go
Em
Your body never made it past the snow
A
Canine fangs about my throat
Em
You're bleeding over Eden like a goat
A
Tall blade dripping in every field
Em
I'm blooming like a fuming human shield

A
Baby can you leave it in the (distant past)?
Baby can you leave it in the (distant past)?
D
Girl, I'm from the very very (distant past)
Girl, I'm from the very very (distant past)
A
Baby can you leave me in the (distant past)?
Baby can you leave me in the (distant past)?
D
Girl, I wanna take you to the (distant past)
Girl, I wanna take you to the (distant past)

[Chorus]
      Em                            A              G
e|---12-12-12-12-12-12-12-12-12-12-12-12-12-12-12-12-12-12-12-12--|
B|---12-12-12-14-14-15-15-15-15-15-14-14-14-14-14-15-15-15-15-15--|
G|---12-12-12-12-12-12-12-12-12-12-14-14-14-14-14-12-12-12-12-12--|
D|----------------------------------------------------------------|
A|----------------------------------------------------------------|
E|----------------------------------------------------------------|  (repeat 4 times)

Em                                         A        G
Take me to the distant past, I want to go back
Em                                             A       G
Save me from the distant past, I want this so bad
Em                                         A        G
Take me to the distant past, I want to go back
Em                                             A       G
Save me from the distant past, I want this so bad

A      Em    A    Em    A     Em
Past, past, past, past, past, past

e|------------------------------------------------|
B|------------------------------------------------|
G|-------------------------4----------------------|
D|--7-------------4-5--4-5------------------------|
A|-----5-7----5-7---------------------------------|
E|------------------------------------------------|

e|---12-12-12-12-12-12-12-12-12-12-12-12-12-12-12-12-12-12-12-12--|
B|---12-12-12-14-14-15-15-15-15-15-14-14-14-14-14-15-15-15-15-15--|
G|---12-12-12-12-12-12-12-12-12-12-14-14-14-14-14-12-12-12-12-12--|
D|----------------------------------------------------------------|
A|----------------------------------------------------------------|
E|----------------------------------------------------------------| repeat 8 times

Em                                         A        G
Take me to the distant past, I want to go back
Em                                             A       G
Save me from the distant past, I want this so bad

            
            
Suggest correction
Creating personal tab
Creating personal tab
You can edit any tab online and save it as your Personal.

You can edit, replace or remove any tab part or add personal notes – all changes will be seen only by you.

Personal tabs can be accessed anytime from any device, even offline.
Learn more »
comments
print report bad tab
1 comment total.
+2 reply
lostprophetguy 101 Dec 05, 2015 12:18 AM

Hi, the chorus riff I think goes like this

-7-7-7----9--9---10-10-10---10-10---9--9--9-----9--9---10-10-10---10-10--
-8-8-8---10-10---12-12-12---10-10---10-10-10---10-10---10-10-10---10-10--
-9-9-9---11-11---12-12-12---9--9----9--9--9----11-11---------------7-7---
-------------------------------------------------------9--9--9-----------
-------------------------------------------------------------------------
-------------------------------------------------------------------------

guest
You may want to rate the tab now too:
select rating
Wanna post a correction for this tab? Suggest correction