Oops, an error
Loading. Please wait.

Final Form Bass Tab

1,208 views 1 this week
1 commentread comment
1 2 3 4 5
1 last vote to show rating
add to favorites
launch autoscroll
font size
0
reset
guitar tuner
Autoscroll
slow
fast
+/-
esc
set tempo
stop
Help us to improve Ultimate-Guitar.com Take our survey!
×
Author
Difficulty
intermediate
Artist: Everything Everything

Album: Man Alive



All tabs by Pedro Zappa
-----------------------------------------------------------------------------
-----------------------------------------------------------------------------


5. Final Form


(wait)

Pre-Chorus 1

G||--------------------|--------------------|
D||-5------------------|-4------------------|
A||--------------------|--------------------|
E||--------------------|--------------------|
    i    i    i    i     i    i    i    i
G||--------------------|--------------------|
D||--------------------|--------------------|
A||-5------------------|-4------------------|
E||--------------------|--------------------|
    i    i    i    i     i    i    i    i
G||--------------------|--------------------|
D||-5------------------|-4------------------|
A||--------------------|--------------------|
E||--------------------|--------------------|
    i    i    i    i     i    i    i    i
G||--------------------|--------------------|
D||--------------------|--------------------|
A||--------------------|--------------------|
E||--------------------|--------------------|
    i    i    i    i     i    i    i    i

Chorus 1

G||--------------------|--------------------|
D||--------------------|--------------------|
A||------3------2------|-0-------0----------|
E||--------------------|--------0----0---2--|
    i    i    i    i     i    i    i    i
G||--------------------|--------------------|
D||--------------------|--------------------|
A||--------------------|------3------2------|
E||-3------x2---2---3--|--------------------|
    i    i    i    i     i    i    i    i
G||--------------------|--------------------|
D||--------------------|--------------------|
A||-0-------0----------|--------------------|
E||--------0----0---2--|-3------x3---2---3--|
    i    i    i    i     i    i    i    i
G||--------------------|--------------------|
D||--------------------|--------------------|
A||------3------2----x-|-7-------7----------|
E||--------------------|--------7----0---2--|
    i    i    i    i     i    i    i    i
G||--------------------|--------------------|
D||--------------------|--------------------|
A||--------------------|------3------2------|
E||-3------x2---2---3--|--------------------|
    i    i    i    i     i    i    i    i
G||--------------------|--------------------|
D||--------------------|--------------------|
A||-0-------0----------|--------------------|
E||--------0----0---2--|-3------x2---2---2--|
    i    i    i    i     i    i    i    i
G||--------------------|--------------------|
D||--------------------|--------------------|
A||------3------2------|--------------------|
E||------------------x-|-5\---0------0---2--|
    i    i    i    i     i    i    i    i
G||--------------------|--------------------|
D||--------------------|--------------------|
A||--------------------|--------------------|
E||-3------x2---2---3--|-5------------------|
    i    i    i    i     i    i    i    i

Verse

(wait) "I can't move my legs and arms"

G||--------------------|--------------------|
D||--------------------|--------------------|
A||--------------------|-3------------------|
E||----------------0---|--------------------|
    i    i    i    i     i    i    i    i
G||--------------------|--------------------|--------------------|
D||--------------------|--------------------|--------------------|
A||----------------7---|-9------------------|--\7----------------|
E||--------------------|--------------------|--------------------|
    i    i    i    i     i    i    i    i     i    i    i    i

(wait) "and each of us have separate souls"

G||--------------------|--------------------|
D||--------------------|--------------------|
A||--------------------|-3------------------|
E||----------------0---|--------------------|
    i    i    i    i     i    i    i    i
G||--------------------|--------------------|--------------------|
D||--------------------|--------------------|--------------------|
A||----------------7---|-9------------------|--\7----------------|
E||--------------------|--------------------|--------------------|
    i    i    i    i     i    i    i    i     i    i    i    i

Pre-Chorus 2

G||--------------------|--------------------|
D||-5------------------|-4------------------|
A||--------------------|--------------------|
E||--------------------|--------------------|
    i    i    i    i     i    i    i    i
G||--------------------|--------------------|
D||--------------------|--------------------|
A||-5------------------|-4------------------|
E||--------------------|--------------------|
    i    i    i    i     i    i    i    i
G||--------------------|--------------------|
D||-5------------------|-4------------------|
A||--------------------|--------------------|
E||--------------------|--------------------|
    i    i    i    i     i    i    i    i
G||--------------------|--------------------|
D||--------------------|--------------------|
A||--------------------|--------------------|
E||--------------------|--------------------|
    i    i    i    i     i    i    i    i

Chorus 2

G||--------------------|--------------------|
D||--------------------|--------------------|
A||------3------2------|-0-------0----------|
E||--------------------|--------0----0---2--|
    i    i    i    i     i    i    i    i
G||--------------------|--------------------|
D||--------------------|--------------------|
A||--------------------|------3------2------|
E||-3------x2---2---3--|--------------------|
    i    i    i    i     i    i    i    i
G||--------------------|--------------------|
D||--------------------|--------------------|
A||-0-------0----------|--------------------|
E||--------0----0---2--|-3------x2---2---3--|
    i    i    i    i     i    i    i    i
G||--------------------|--------------------|
D||--------------------|--------------------|
A||------3------2----x-|-7-------7----------|
E||--------------------|--------7----0---2--|
    i    i    i    i     i    i    i    i
G||--------------------|--------------------|
D||--------------------|--------------------|
A||-------------0---2--|------3------2------|
E||-3------x2----------|--------------------|
    i    i    i    i     i    i    i    i
G||--------------------|--------------------|
D||--------------------|--------------------|
A||-0-------0----------|--------------------|
E||--------0----0---2--|-3------x2---2---2--|
    i    i    i    i     i    i    i    i
G||--------------------|--------------------|
D||--------------------|--------------------|
A||------3------2------|--------------------|
E||--------------------|-5------x5\--0--0-2-|
    i    i    i    i     i    i    i    i
G||--------------------|--------------------|
D||--------------------|--------------------|
A||--------------------|--------------------|
E||-3------x2---2---3--|-5------------------|
    i    i    i    i     i    i    i    i

(wait)

Outro

G||--------------------|--------------------|
D||-5555-4442-2--------|------0002-2244-4444|
A||------------222-2222|-3333---------------|
E||--------------------|--------------------|
    i    i    i    i     i    i    i    i
G||--------------------|--------------------||  x2
D||--------------------|-----2224--4477-7777||
A||-4444-2220-0022-2222|-4444---------------||
E||--------------------|--------------------||
    i    i    i    i     i    i    i    i
G||--------------------|--------------------|
D||-5555-5555-5555-5555|-4444-4444-4444-4444|
A||--------------------|--------------------|
E||--------------------|--------------------|
    i    i    i    i     i    i    i    i
G||--------------------|--------------------|
D||--------------------|--------------------|
A||-5555-5555-5555-5555|-4444-4444-4444-4444|
E||--------------------|--------------------|
    i    i    i    i     i    i    i    i
G||--------------------|--------------------|
D||-5555-5555-5555-5555|-4444-4444-4444-4444|
A||--------------------|--------------------|
E||--------------------|--------------------|
    i    i    i    i     i    i    i    i

Chorus 3

G||--------------------|--------------------|
D||--------------------|--------------------|
A||------3------2------|-0-------0----------|
E||------------------0-|--------0----0---2--|
    i    i    i    i     i    i    i    i
G||--------------------|--------------------|
D||--------------------|--------------------|
A||--------------------|------3------2------|
E||-3------x2---2---3--|--------------------|
    i    i    i    i     i    i    i    i
G||--------------------|--------------------|
D||--------------------|--------------------|
A||-0-------0----------|--------------------|
E||--------0----0---2--|-3------x2---2---3--|
    i    i    i    i     i    i    i    i
G||--------------------|--------------------|
D||--------------------|--------------------|
A||------3------2----2-|-7-------7----------|
E||--------------------|--------7----0---2--|
    i    i    i    i     i    i    i    i
G||--------------------|--------------------|
D||--------------------|--------------------|
A||-------------0---2--|------3------2------|
E||-3------x2----------|--------------------|
    i    i    i    i     i    i    i    i
G||--------------------|--------------------|
D||--------------------|--------------------|
A||-0-------0----------|--------------------|
E||--------0----0---2--|-3------x2---2---3--|
    i    i    i    i     i    i    i    i
G||--------------------|--------------------|
D||--------------------|--------------------|
A||------3------2------|--------------------|
E||------------------x-|-5\---0------0---2--|
    i    i    i    i     i    i    i    i
G||--------------------|--------------------|
D||--------------------|--------------------|
A||-------------5----7-|------3------2------|
E||-3------x2----------|--------------------|
    i    i    i    i     i    i    i    i


G||--------------------|--------------------|
D||--------------------|--------------------|
A||-0-------0----------|--------------------|
E||--------0----0---2--|-3------x2---2---3--|
    i    i    i    i     i    i    i    i
G||--------------------|--------------------|
D||--------------------|--------------------|
A||------3------2------|-0-------0----------|
E||--------------------|--------0----0---2--|
    i    i    i    i     i    i    i    i
G||--------------------|--------------------|
D||--------------------|--------------------|
A||--------------------|------3-------2---2-|
E||-3------x2---2---3--|--------------------|
    i    i    i    i     i    i    i    i
G||--------------------|--------------------|
D||--------------------|--------------------|
A||-7-------7----------|-------------0----2-|
E||--------7----0----2-|-3------x2----------|
    i    i    i    i     i    i    i    i
G||--------------------|--------------------|
D||--------------------|--------------------|
A||------3------2------|-0-------0----------|
E||--------------------|--------0----0---2--|
    i    i    i    i     i    i    i    i
G||--------------------|--------------------|
D||--------------------|--------------------|
A||--------------------|------3-------2-----|
E||-3------x2---2---3--|--------------------|
    i    i    i    i     i    i    i    i
G||--------------------|--------------------|
D||--------------------|--------------------|
A||--------------------|-----------------3--|
E||-5\---0------0---2--|-3------x2---2------|
    i    i    i    i     i    i    i    i


Tab by Pedro Zappa
-----------------------------------------------------------------------------
-----------------------------------------------------------------------------
Suggest correction
Give kudos to tab author, rate the tab!
1 2 3 4 5
comments
print report bad tab
1 comment total.
0 reply
eder.osp 10 Nov 26, 2013 10:26 PM

Great tab.

guest
You may want to rate the tab now too:
select rating
Wanna post a correction for this tab? Suggest correction