Oops, an error
Loading. Please wait.

Nasa Is On Your Side Tab

1,397 views 1 this week
no commentswrite comment
1 2 3 4 5
please rate
add to favorites
launch autoscroll
font size
0
reset
how to read this tab
guitar tuner
Autoscroll
slow
fast
+/-
esc
set tempo
stop
Help us to improve Ultimate-Guitar.com Take our survey!
×
Author
Difficulty
novice
http://www.everything-everything.co.uk/

Artist:  Everything Everything
Song:    Nasa Is On Your Side
tabbed by an_aminal

I realise these aren't the actual chords played on piano - these are the
powerchords for the root note of each chord but they sound OK over the record.
If you are more musically able feel free to create a version 2!


-------
Verse
-------
  

                        I awake in the future, I had
   D           D            A          A
1|------------------------------------------------|
2|------------------------------------------------|
3|--------------------------14---------14---------|
4|-12----------12-----------14---------14---------|
5|-12----------12-----------12---------12---------|
6|-10----------10---------------------------------|

   turned to   stone with   fear,      laid on 
   E           E            E          E
1|------------------------------------------------|
2|------------------------------------------------|
3|------------------------------------------------|
4|-14---------14-----------14---------14----------|
5|-14---------14-----------14---------14----------|
6|-12---------12-----------12---------12----------|


   petrified   trees
   D           D            D          D
1|------------------------------------------------|
2|------------------------------------------------|
3|------------------------------------------------|
4|-12----------12-----------12----------12--------|
5|-12----------12-----------12----------12--------|
6|-10----------10-----------10----------10--------|

   oooh                    oooh               
   A           A           A           A
1|------------------------------------------------|
2|------------------------------------------------|
3|-6-----------6-----------6-----------6----------|
4|-7-----------7-----------7-----------7----------|
5|-7-----------7-----------7-----------7----------|
6|-5-----------5-----------5-----------5----------|


we began dismataling
the stadia and schools singing save
our simian souls, 
oooh
polished up warm bullets
hanging static in the air, 
droplets glittering home, 
oooh,


   --- Chorus ---
fast relaxed alternate strumming - 8 notes per beat

                           Nasa knows,  
   1           2           3           4       
1|-6-6-6-6-6-6-6-6-6-6-6-6-5-5-5-5-5-5-5-5-5-5-5-5|
2|-6-6-6-6-6-6-6-6-6-6-6-6-5-5-5-5-5-5-5-5-5-5-5-5|
3|------------------------------------------------|
4|------------------------------------------------|
5|------------------------------------------------|
6|------------------------------------------------|


                   how the-pheromones,     
   1           2           3           4       
1|-6-6-6-6-6-6-6-6-6-6-6-6-8-8-8-8-8-8-8-8-8-8-8-8|
2|-6-6-6-6-6-6-6-6-6-6-6-6-8-8-8-8-8-8-8-8-8-8-8-8|
3|------------------------------------------------|
4|------------------------------------------------|
5|------------------------------------------------|
6|------------------------------------------------|
  
   cascade                 down the walls,      
   1           2           3           4       
1|-10-10-10-10-10-10-10-10-10-10-10-10-10-10-10-10|
2|-10-10-10-10-10-10-10-10-10-10-10-10-10-10-10-10|
3|------------------------------------------------|
4|------------------------------------------------|
5|------------------------------------------------|
6|------------------------------------------------|  

   you cant help the way you feel,
   1           2           3           4           
1|-15-15-15-15-15-15-15-15-13-13-13-13-13-13-13-13|
2|-15-15-15-15-15-15-15-15-13-13-13-13-13-13-13-13|
3|------------------------------------------------|
4|------------------------------------------------|
5|------------------------------------------------|
6|------------------------------------------------|

          you're the cruelst oil, 
          let your vision boil, 
          gonna make a coal face out of you, 

   isambard im all steel
   1           2           3           4           
1|-15-15-15-15-15-15-15-15-17-17-17-17-17-17-17-17|
2|-15-15-15-15-15-15-15-15-17-17-17-17-17-17-17-17|
3|------------------------------------------------|
4|------------------------------------------------|
5|------------------------------------------------|
6|------------------------------------------------|


verse 2

first section: no chords
second section: verse chords played through some effect that sounds vaguely like a harpsichord :P 

subsequent sections have some lose guitar picking based around....

1|--10---10---7----7------------------------------|
2|--10---10---10---10---7---8---------------------|
3|------------------------------------------------|
4|------------------------------------------------|
5|------------------------------------------------|
6|------------------------------------------------|

listen to the record to hear what I mean


   --- chorus --- x 2

   --- verse --- 

    --- end ---
Suggest correction
Give kudos to tab author, rate the tab!
1 2 3 4 5
comments
print report bad tab
guest
You may want to rate the tab now too:
select rating
Please do not post tabs as comments. Select "correction" instead!