Oops, an error
Loading. Please wait.

Photoshop Handsome Bass Tab

version 1
version 1

Whole song

964 views 3 this week
no commentswrite comment
1 2 3 4 5
please rate
add to favorites
launch autoscroll
font size
0
reset
guitar tuner
Autoscroll
slow
fast
+/-
esc
set tempo
stop
Help us to improve Ultimate-Guitar.com Take our survey!
×
-----------------------------------------------------------------------------
			     Everything Everything - Photoshop Handsome
-----------------------------------------------------------------------------

Tabbed By : Louis Wu
e-mail: louishwu@gmail.com

Groove it

G|----------------------------------|--------------------------------------|
D|----------------------------------|--------------------------------------|
A|----------------------------------|--------------------------------------|
E|/7\4--2/4/2/4--/4/6/4/6--4/6/4/6--|--7/4--2/4/2/4--/4/6/4/6--4/6/4/6-----|

VERSE
G|----------------------------------|--------------------------------------|
D|----------------------------------|--------------------------------------|
A|----------------------------------|--------------------------------------|
E|/7\4--2/4/2/4--/4/6/4/6--4/6/4/6--|--7/4--2/4/2/4--/4/6/4/6--4/6/4/6-----|

G|----------------------------------|--------------------------------------|
D|----------------------------------|-------------------------/7/9---------|
A|----------------------------------|------------------------------7/9-----|
E|-7/4--2/4/2/4--/4/6/4/6--4/6/4/6--|--7/4--2/4/2/4--/4/6/4/6--------------|

G|----------------------------------|--------------------------------------|
D|----------------------------------|--------------------------------------|
A|----------------------/6\4\-------|-----------------------/6\4-----------|
E|-7-4---4--4--/4/6/4/6-------------|--7-4---4--4--/4/6/4/6----------------|

G|----------------------------------|--------------------------------------|
D|----------------------------------|--------------------------------------|
A|----------------------/6\4\-------|-----------------------/6\4-----------|
E|-7-4---4--4--/4/6/4/6-------------|--7-4---4--4--/4/6/4/6----------------|

CHORUS "Airbrush…"
G|--------------------------------------------------|
D|--------------------------------------------------|
A|--------------7--7--9--9--------6--6--7--7--6--6--|
E|--9--9--8--8--------------6--6--------------------|

G|--------------------------------------------------|
D|--------------------------------------------------|
A|-9-8---------------------------6--6--7--7--6--6---|
E|----9--8--8--5--5--7--7--6--6-------------------6\|

SECOND VERSE
G|---------------------------------|---------------------------------------|
D|---------------------------------|---------------------------------------|
A|---------------------------------|---------------------------------------|
E|---------------------------4-4-4-|---------------------------------4-4-4-|

G|---------------------------------|---------------------------------------|
D|---------------------------------|---------------------------5--7--------|
A|---------------------------------|---------------------------------5--7--|
E|---------------------------4-4-4-|---------------------------------------|

G|---------------------------------|--------------------------------------|
D|---------------------------------|--------------------------------------|
A|----------------------/6\4\------|-----------------------/6\4-----------|
E|-7-4---4--4--/4/6/4/6------------|--7-4---4--4--/4/6/4/6----------------|

G|---------------------------------|--------------------------------------|
D|---------------------------------|--------------------------------------|
A|----------------------/6\4-------|--------------------------------------|
E|-7-4---4--4--/4/6/4/6------------|--7-4---4--4--/4/6/4/6----------------|

CHORUS 2 "Airbrush…"
G|--------------------------------------------------|
D|--------------------------------------------------|
A|--------------7--7--9--9--------6--6--7--7--6--6--|
E|--9--9--8--8--------------6--6--------------------|

G|------------------------------------------------|---------------|
D|------------------------------------------------|---------------|
A|-9-8---------------------------6--6--7--7--6--6-|-9--9--12--12--|
E|----9--8--8--5--5--7--7--6--6-------------------|---------------|


BRIDGE
G|---------------------------------|-----------------------------------|
D|-9/6--4/6/4/6--6/8/6/8--6/8/6/8--|--9/6--4/6/4/6--6/8/6/8--6/8/6/8---| 
A|---------------------------------|-----------------------------------|
E|---------------------------------|-----------------------------------|

G|---------------------------------|-------------------------------|
D|---------------------------------|-------------------------------|
A|----------------------/6\4\------|------------------7--7--7------|
E|-7-4---4--4--/4/6/4/6------------|---7\4---2/4/2/4---------------|

CHORUS 1 (X2) 


| /  slide up
| \  slide down
| h  hammer-on
| p  pull-off
| ~  vibrato
| +  harmonic
| x  Mute note
===============================================================================
Suggest correction new What's this?
You can suggest a correction to this tab. Community and Mods will review your correction and vote to approve or reject it.
comments
We did not receive enough feedback on this tab! Please rate:
print report bad tab
1 2 3 4 5
guest
You may want to rate the tab now too:
select rating
Please do not post tabs as comments. Select "correction" instead!