Oops, an error
Loading. Please wait.

Photoshop Handsome Bass Tab

version 2
version 2

Whole song

730 views 3 this week
no commentswrite comment
1 2 3 4 5
2 more votes to show rating
add to favorites
launch autoscroll
font size
0
reset
guitar tuner
Autoscroll
slow
fast
+/-
esc
set tempo
stop
Help us to improve Ultimate-Guitar.com Take our survey!
×
Author
Difficulty
advanced
Artist: Everything Everything

Album: Man Alive



All tabs by Pedro Zappa
-----------------------------------------------------------------------------
-----------------------------------------------------------------------------


6. Photoshop Handsome


Intro

G||--------------------|--------------------||  x2
D||--------------------|--------------------||
A||--------------------|--------------------||
E||/7----4----24--24---|-46--46----24--6--4-||
    i    i    i    i     i    i    i    i

Verse 1

G||--------------------|--------------------||  x3
D||--------------------|--------------------||
A||--------------------|--------------------||
E||/7----4----24--24---|-46--46----24--6--4-||
    i    i    i    i     i    i    i    i
G||--------------------|--------------------|
D||--------------------|--------------------|
A||--------------------|-12---14---7----9---|
E||/7----4----24--24---|--------------------|
    i    i    i    i     i    i    i    i

G||--------------------|--------------------||  x3
D||--------------------|--------------------||
A||--------------------|---------4-6----4-3-||
E||/7----4---24---24---|-46--46-------------||
    i    i    i    i     i    i    i    i

Chorus 1

G||--------------------|--------------------|
D||--------------------|--------------------|
A||-4----4----3333--3--|-7----7----7999-7999|
E||--------------------|--------------------|
    i    i    i    i     i    i    i    i
G||--------------------|--------------------|
D||--------------------|--------------------|
A||-----------6666---6-|-7---------6--------|
E||-6----6----------6--|------7---------6---|
    i    i    i    i     i    i    i    i
G||--------------------|--------------------|
D||-6------------------|--------------------|
A||---8--4----3333--33-|-0----0----0222--12-|
E||--------------------|--------------------|
    i    i    i    i     i    i    i    i
G||--------------------|--------------------|
D||--------------------|--------------------|
A||-1----1----6666---6-|-7---------6--------|
E||-----------------6--|------7---------6---|
    i    i    i    i     i    i    i    i
G||--------------------|--------------------|
D||--------------------|--------------------|
A||--------------------|--------------------|
E||-4\-----------------|--------------------|
    i    i    i    i     i    i    i    i

Verse 2   

(wait) "More dollar! Less scholar! Less time! 

G||--------------------|--------------------||  x4
D||--------------------|--------------------||
A||--------------------|--------------------||
E||------------------44|-4------------------||
    i    i    i    i     i    i    i    i

(Wait) "I know nothing about my history"

G||--------------------|
D||--------------------|
A||-12---14---7----9---|
E||--------------------|
    i    i    i    i   
G||--------------------|--------------------||  x2
D||--------------------|--------------------||
A||--------------------|---------4-6----4-3-||
E||/7----4---24---24---|-46--46-------------||
    i    i    i    i     i    i    i    i
G||--------------------|--------------------|
D||--------------------|--------------------|
A||--------------------|---------4-6--------|
E||/7----4---24---24---|-46--46-------------|
    i    i    i    i     i    i    i    i

Chorus 2

G||--------------------|--------------------|
D||--------------------|--------------------|
A||-4----4----3333--3--|-7----7----7999-7999|
E||--------------------|--------------------|
    i    i    i    i     i    i    i    i
G||--------------------|--------------------|
D||--------------------|--------------------|
A||-----------6666---6-|-7---------6--------|
E||-6----6----------6--|------7---------6---|
    i    i    i    i     i    i    i    i
G||--------------------|--------------------|
D||-6------------------|--------------------|
A||---8--4----3333--33-|-0----0----0222--12-|
E||--------------------|--------------------|
    i    i    i    i     i    i    i    i
G||--------------------|--------------------|
D||--------------------|--------------------|
A||-1----1----6666---6-|-7---------6--------|
E||-----------------6--|------7---------6---|
    i    i    i    i     i    i    i    i
G||--------------------|--------------------|
D||--------9--7----7---|--------------------|
A||-9----9-------------|--------------------|
E||--------------------|--------------------|
    i    i    i    i     i    i    i    i

(wait) "I will gain an extra life"

G||-----------------------|-------------------------------|
D||/9---------------------|-------------------------------|
A||------11---9.11-9.11---|-11.13---11.13---9.11-13--11---|
E||-----------------------|-------------------------------|
    i    i    i       i     i       i       i       i
G||------------------------|----------------------------------|
D||/9----------------------|----------------------------------|
A||------11---9.11--9.11---|-11.13---11.13---9.11-13--13.11.9-|
E||------------------------|----------------------------------|
    i    i    i       i      i       i       i        i

G||--------------------|--------------------| 
D||--------------------|--------------------|
A||--------------------|---------4-6----4-3-|
E||/7----4---24---24---|-46--46-------------|
    i    i    i    i     i    i    i    i
G||--------------------|--------------------|
D||--------------------|--------------------|
A||--------------------|--------------------|
E||/7----4---24---24---|-5----5----5--------|
    i    i    i    i     i    i    i    i

Chorus 3

G||--------------------|--------------------|
D||--------------------|--------------------|
A||-4----4----33-3--3-3|-7----7----7999-7999|
E||--------------------|--------------------|
    i    i    i    i     i    i    i    i
G||--------------------|--------------------|
D||--------------------|--------------------|
A||-----------66-6---6-|-7---------6--------|
E||-6----6----------6--|------7---------6---|
    i    i    i    i     i    i    i    i
G||--------------------|--------------------|
D||---6--3-------------|--------------------|
A||-4------4--33-3--23-|-0----0----02-2--12-|
E||--------------------|--------------------|
    i    i    i    i     i    i    i    i
G||--------------------|--------------------|
D||--------------------|--------------------|
A||-1----1----6666---6-|-7---------6--------|
E||-----------------6--|------7---------6---|
    i    i    i    i     i    i    i    i
---

G||--------------------|--------------------|
D||--------------------|--------------------|
A||-4----4----33-3--3-3|-7----7----7999-7999|
E||--------------------|--------------------|
    i    i    i    i     i    i    i    i
G||--------------------|--------------------|
D||--------------------|--------------------|
A||-----------66-6---6-|-7---------6--------|
E||-6----6----------6--|------7---------6---|
    i    i    i    i     i    i    i    i
G||--------------------|--------------------|
D||-6-3----------------|--------------------|
A||------4----33-3--23-|-0----0----02-2--12-|
E||--------------------|--------------------|
    i    i    i    i     i    i    i    i
G||--------------------|--------------------|
D||--------------------|--------------------|
A||-1----1----6666---6-|-7---------6--------|
E||-----------------6--|------7---------6---|
    i    i    i    i     i    i    i    i
G||--------------------|--------------------|
D||--------------------|--------------------|
A||-4------------------|--------------------|
E||--------------------|--------------------|
    i    i    i    i     i    i    i    i


Tab by Pedro Zappa
-----------------------------------------------------------------------------
-----------------------------------------------------------------------------
Suggest correction
Give kudos to tab author, rate the tab!
1 2 3 4 5
comments
print report bad tab
guest
You may want to rate the tab now too:
select rating
Wanna post a correction for this tab? Suggest correction