Oops, an error
Loading. Please wait.

Schoolin Bass Tab

version 1
version 1

Whole song

4,645 views 3 this week
no commentswrite comment
1 2 3 4 5
accurate
x 5
add to favorites
launch autoscroll
font size
0
reset
guitar tuner
Autoscroll
slow
fast
+/-
esc
set tempo
stop
Help us to improve Ultimate-Guitar.com Take our survey!
×
Author
Everything Everything - Schoolin'
From the album Man Alive
tabbed by Alice637


Intro
(0:10)
G|-----------------------------------------------------|
D|----7---9--10----------------------------------------|
A|-----------------------------------------------------|
E|-----------------------------------------------------|


Verse 
G|-----------------------------------------------------|
D|--7--9--10-------------------------------------------|
A|-----------------------------------------------------|  x2
E|-----------------------------------------------------|

G|-----------------------------------------------------------|
D|--7--9--10-----9-7----------------------7---7--------------|
A|----------------------7-77-----5-55------------------------| x2
E|-----------------------------------------------------------|


Chorus
You say that I'm an overlord.
G|-----------------------------------------------------|
D|--------5----8---------------------------------------|
A|---6-------------333-5--333-5------------------------|
E|-----------------------------------------------------| 

G|-------------------------------------------------------------------------|
D|--------5----8--------------101010-12--101010-12-------------------------|
A|---6---------------------------------------------------------------------|
E|-------------------------------------------------------------------------| 

G|----------------------------------------------------------------|
D|---12121212--12-13-12-10----------------------------------------|
A|----------------------------13--10------------333-5--333-5------|
E|-------------------------------------3----6---------------------|

G|------------------------------------------------------------5-7-5----|
D|---12121212--12-13-12-10-------------------------------------------7-|
A|----------------------------13--10------------333-5--333-5-----------|
E|-------------------------------------3----6--------------------------|

(schoolin')
G|------------------------------------------------------|
D|-------------0----------------------------------------|
A|--0---------------------------------------------------|
E|--------3---------1-----------------------------------|


Verse 2
G|-----------------------------------------------------------|
D|--7--9--10-----9-7----------------------7---7--------------|
A|----------------------7-77-----5-55------------------------| x2
E|-----------------------------------------------------------|


G|-----------------------------------------------------|
D|-----------------------------0--00-------------------|
A|-----------------------------------------------------|
E|---5--7--8-----7-5-0-00------------1-3--5------------| 


G|-----------------------------------------------------|
D|-----------------------------0--00-------------------|
A|-----------------------------------------------------|
E|---5--7--8-----7-5-0-00-----------1---1--------------| 


Chorus
You say that I'm an overlord.
G|-----------------------------------------------------|
D|--------5----8---------------------------------------|
A|---6-------------333-5--333-5------------------------|
E|-----------------------------------------------------| 

G|----------------------------------------------------------------|
D|--------5----8--------------101010-12--101010-12----------------|
A|---6------------------------------------------------------------|
E|----------------------------------------------------------------| 

G|----------------------------------------------------------------|
D|---12121212--12-13-12-10----------------------------------------|
A|----------------------------13--10------------333-5--333-5------|
E|-------------------------------------3----6---------------------|

G|----------------------------------------------------------------|
D|---12121212--12-13-12-10----------------------------------------|
A|----------------------------13--10------------333-5--333-5------|
E|-------------------------------------3----6---------------------|


The drummer goes on, the drummer goes on
My number is up, my number is up
G|-----------------------------------------------------|
D|--10101010---7---------------------------------------|
A|-----------------------------------------------------|
E|-----------------------------------------------------|

Bass Solo
G|--------------------7-9-7----------------------------------------------|
D|---7--10-9-10-----9--------9-----------9--------9-9-9-7---7------------|
A|--------------7---------------10--9-10---7-7-7----------7--------------|
E|-----------------------------------------------------------------------|

G|-----------------7-9-7-------------------------------------------------|
D|--9-10-9-------9-------9-----------9--------9-9-9-7--7-----------------|
A|---------10-7-------------10--9-10----7-7-7---------7------------------|
E|-----------------------------------------------------------------------|


(Earth, I take a long time, to learn about the big one)
G|--------------------7-9-7----------------------------------------------|
D|---7--10-9-10-----9--------9-----------9--------9-9-9-7---7------------|
A|--------------7---------------10--9-10---7-7-7----------7--------------|
E|-----------------------------------------------------------------------|

G|-----------------7-9-7-------------------------------------------------|
D|--9-10-9-------9-------9-----------9--------9-9-9-7--7-----------------|
A|---------10-7-------------10--9-10----7-7-7---------7------------------|
E|-----------------------------------------------------------------------| x3
Suggest correction
comments
print report bad tab
guest
You may want to rate the tab now too:
select rating
Wanna post a correction for this tab? Suggest correction