Oops, an error
Loading. Please wait.

Suffragette Suffragette Bass Tab

version 1
version 1

Whole song

2,569 views 12 this week
no commentswrite comment
1 2 3 4 5
excellent!
x 5
add to favorites
launch autoscroll
font size
0
reset
guitar tuner
Tab Pro tools
  • play this tab
  • loop segment
  • change instrument
  • show fretboard
  • metronome
×
Best way to learn
"Suffragette Suffragette"
Autoscroll
slow
fast
+/-
esc
set tempo
stop
Contributor
Difficulty
intermediate
Band: Everything Everything
Album: Man Alive
Song: Suffragette Suffragette
Tabbed by: RiseAgainst123


Verse
Blitz...
G|--------------------------------------------|
D|------------------11-11-11--9-9-9--7-7--9-9-|
A|-----------9-9-9----------------------------| x7
E|-10-10-10-----------------------------------|

G|------------------------------|
D|------------------11--9--7h9--|
A|-----------9-9-9--------------| x1
E|-10-10-10---------------------|

G|--------------------------------------------|
D|------------------11-11-11--9-9-9--7-7--9-9-|
A|-----------9-9-9----------------------------| x7
E|-10-10-10-----------------------------------|

G|------------------------------|
D|------------------11--9--7h9--|
A|-----------9-9-9--------------| x1
E|-10-10-10---------------------|


Chorus

G|----------------------18-18-18--16-16-16--14-14--16-16-|
D|------------16-16-16-----------------------------------|
A|--17-17-17---------------------------------------------| x1
E|-------------------------------------------------------|

G|-------------------------------16-16-16--14-14--16-16-|
D|------------14-14-14-14-14-14-------------------------|
A|--16-16-16--------------------------------------------| x1
E|------------------------------------------------------|

G|----------------------18-18-18--16-16-16--14-14--16-16-|
D|------------16-16-16-----------------------------------|
A|--17-17-17---------------------------------------------| x1
E|-------------------------------------------------------|

G|-------------------------------16-16-16--14-14--16-16-|
D|------------14-14-14-14-14-14-------------------------|
A|--16-16-16--------------------------------------------| x1
E|------------------------------------------------------|


Riff

G|----------------------------------------|
D|--------------------------------6-------|
A|----------------------------------9-7-6-| x3
E|--9-0-0-2-0-0-4p0-4p0-5-0-0-7-0---------|


Verse

G|--------------------------------------------|
D|------------------11-11-11--9-9-9--7-7--9-9-|
A|-----------9-9-9----------------------------| x1
E|-10-10-10-----------------------------------|

G|-------------------------------------|
D|------------------11-11-11--9-9-9--0-|
A|-----------9-9-9---------------------| x1
E|-10-10-10----------------------------|

G|--------------------------------------------|
D|------------------11-11-11--9-9-9--7-7--9-9-|
A|-----------9-9-9----------------------------| x7
E|-10-10-10-----------------------------------|

G|------------------------------|
D|------------------11--9--7h9--|
A|-----------9-9-9--------------| x1
E|-10-10-10---------------------|

G|--------------------------------------------|
D|------------------11-11-11--9-9-9--7-7--9-9-|
A|-----------9-9-9----------------------------| x7
E|-10-10-10-----------------------------------|

G|------------------------------|
D|------------------11--9--7h9--|
A|-----------9-9-9--------------| x1
E|-10-10-10---------------------|


Chorus

G|----------------------18-18-18--16-16-16--14-14--16-16-|
D|------------16-16-16-----------------------------------|
A|--17-17-17---------------------------------------------| x1
E|-------------------------------------------------------|

G|-------------------------------16-16-16--14-14--16-16-|
D|------------14-14-14-14-14-14-------------------------|
A|--16-16-16--------------------------------------------| x1
E|------------------------------------------------------|

G|----------------------18-18-18--16-16-16--14-14--16-16-|
D|------------16-16-16-----------------------------------|
A|--17-17-17---------------------------------------------| x1
E|-------------------------------------------------------|

G|-------------------------------16-16-16--14-14--16-16-|
D|------------14-14-14-14-14-14-------------------------|
A|--16-16-16--------------------------------------------| x1
E|------------------------------------------------------|


Riff

G|----------------------------------|
D|--------------------------6-------|
A|----------------------------9-7-6-| x1
E|--2-0-0-4p0-4p0-5-0-0-7-0---------|

G|----------------------------------------|
D|--------------------------------6-------|
A|----------------------------------9-7-6-| x2
E|--9-0-0-2-0-0-4p0-4p0-5-0-0-7-0---------|

G|-------------------------------------------------------------|
D|-------------------------------------------------------------|
A|-----------------7-7-7-7-9-9-9-9-9-9-9-9-11-11-11-11-9-9-9-9-| x1
E|--9-0-0-9--9-9-9---------------------------------------------|


Chorus

G|-----------------------------------------------|
D|-----------------------------------------------|
A|-------------------------------------11-11-9-9-|
E|-10-10-10-10-10-10-10-10-10-10-10-10-----------|

G|---------------------------------|
D|---------------------------------|
A|---------------------------------| x4 (whole chorus)
E|-9-9-9-9-9-9-7-7-7-7-7-7-9-9-7-7-|


Bridge

G|------------|
D|------------|
A|--------7-9-| x1
E|----/10-----|

G|--------------------------------------------|
D|------------------11-11-11--9-9-9--7-7--9-9-|
A|-----------9-9-9----------------------------| x8
E|-10-10-10-----------------------------------|


Outro

G|----------18-18-18--16-14h16-|
D|------16---------------------|
A|--17-------------------------|
E|-----------------------------|

G|----------16-14h16-|
D|------14-----------|
A|--16---------------| x4 (whole outro)
E|-------------------|




Any corrections please email me at lew_brown_22@hotmail.co.uk or just post in the comments.
comments
print report bad tab
I want to post or [tab]
guest
You may want to rate the tab now too:
select rating
Please do not post tabs as comments. Select "correction" instead!