Oops, an error
Loading. Please wait.

Suffragette Suffragette Bass Tab

version 2
version 2

Whole song

386 views 1 this week
no commentswrite comment
1 2 3 4 5
2 more votes to show rating
add to favorites
launch autoscroll
font size
0
reset
guitar tuner
Autoscroll
slow
fast
+/-
esc
set tempo
stop
Help us to improve Ultimate-Guitar.com Take our survey!
×
Artist: Everything Everything

Album: Man Alive



All tabs by Pedro Zappa
-----------------------------------------------------------------------------
-----------------------------------------------------------------------------


8. Suffragette Suffragette


Verse 1

G||--------66-6444-2444||  x3
D||-0004-44------------||
A||--------------------||
E||--------------------||
    i    i    i    i   
G||--------66-6444-----|
D||-0004-44--------7764|
A||--------------------|
E||--------------------|
    i    i    i    i   
G||--------66-6444-2444||  x3
D||-0004-44------------||
A||--------------------||
E||--------------------||
    i    i    i    i   
G||---------6--4-------|
D||-0004-44------6-7764|
A||--------------------|
E||--------------------|
    i    i    i    i   
---

G||--------66-6444-2444|--------66-6444-----||  x3
D||-0004-44------------|-0004-44--------7764||
A||--------------------|--------------------||
E||--------------------|--------------------||
    i    i    i    i     i    i    i    i   
G||--------66-6444-2444|--------66-6444-----|
D||-0004-44------------|-0004-44--------7777|
A||--------------------|--------------------|
E||--------------------|--------------------|
    i    i    i    i     i    i    i    i   

Chorus 1

G||-----------------18.18-18.16-16.16-14.16.16.16|
D||---------16-16.16-----------------------------|
A||-17.17.17-------------------------------------|
E||----------------------------------------------|
    i          i          i           i  
G||--------------------------16.16.16-14.14.16.16||  x2
D||---------14-14.14.14.14-14--------------------||
A||-16.16.16-------------------------------------||
E||----------------------------------------------||
    i          i           i          i  

Riff

(wait)

G||--------------------|--------------------|
D||--------------------|-----------------976|
A||--------------------|--------------------|
E||-9--0--02---0-0-4040|-5---0-0-0-7--------|
    i    i    i    i     i    i    i    i
G||--------------------|--------------------|
D||--------------------|--------------------|
A||--------------------|----------------4777|
E||-9--0--02---0-0-4040|-5---0-0-0-7--------|
    i    i    i    i     i    i    i    i
G||--------------------|--------------------||
D||--------------------|--------------------||
A||--------------------|--------------------||
E||-9--0--02---0-0-4040|-5---0-0-0-7----9\--||
    i    i    i    i     i    i    i    i

Interlude

G||--------66-6444-2444|--------66-6444-----||
D||-0004-44------------|-0004-44------------||
A||--------------------|----------------0---||
E||--------------------|--------------------||
    i    i    i    i     i    i    i    i

Verse 2

G||--------66-6444-2444|--------66-6444-----||  x2
D||-0004-44------------|-0004-44--------7764||
A||--------------------|--------------------||
E||--------------------|--------------------||
    i    i    i    i     i    i    i    i   
G||--------66-6444-2444|--------66-6444-2444|
D||-0004-44------------|-0004-44------------|
A||--------------------|--------------------|
E||--------------------|--------------------|
    i    i    i    i     i    i    i    i   
G||--------66-6444-2444|--------66-644------|
D||-0004-44------------|-0004-44------6-7764|
A||--------------------|--------------------|
E||--------------------|--------------------|
    i    i    i    i     i    i    i    i  


G||--------66-6444-2444|--------66-6444-----||  x2
D||-0004-44------------|-0004-44--------7764||
A||--------------------|--------------------||
E||--------------------|--------------------||
    i    i    i    i     i    i    i    i   
G||--------66-6444-2444|--------66-6444-----|
D||-0004-44------------|-0004-44--------7764|
A||--------------------|--------------------|
E||--------------------|--------------------|
    i    i    i    i     i    i    i    i  
G||--------66-6444-2444|--------66-6444-----||
D||-0004-44------------|-0004-44--------7777||
A||--------------------|--------------------||
E||--------------------|--------------------||


Chorus 2

G||-----------------18.18-18.16-16.16-14.16.16.16|
D||---------16-16.16-----------------------------|
A||-17.17.17-------------------------------------|
E||----------------------------------------------|
    i          i          i           i  
G||--------------------------16.16.16-14.14.16.16||  x2
D||---------14-14.14.14.14-14--------------------||
A||-16.16.16-------------------------------------||
E||----------------------------------------------||
    i          i           i          i   

Riff

(wait)

G||--------------------|--------------------|
D||--------------------|-----------------976|
A||--------------------|--------------------|
E||--------2---0-0-4040|-5---0-0-0-7--------|
    i    i    i    i     i    i    i    i
G||--------------------|--------------------|
D||--------------------|--------------------|
A||--------------------|----------------4777|
E||-9--0--02---0-0-4040|-5---0-0-0-7--------|
    i    i    i    i     i    i    i    i
G||--------------------|--------------------|
D||--------------------|--------------------|
A||--------------------|--------------------|
E||-9--10--9-------4040|-5---0-0-0-7----9\--|
    i    i    i    i     i    i    i    i
G||--------------------|---------------------------|
D||--------------------|---------------------------|
A||----------------7777|-79--99999-11.11.11.11-9999|
E||-9--10--9-----------|---------------------------|
    i    i    i    i     i    i    i           i

Chorus 2

G||--------------------|--------------------|--------------------||  x2
D||-0000-0000-0000-0000|-0000-0000-0000-4400|--------------------||
A||--------------------|--------------------|-4444-4444-2222-2244||
E||--------------------|--------------------|--------------------||
    i    i    i    i     i    i    i    i     i    i    i    i
G||--------------------|--------------------|-----------------2--||
D||-0000-0000-0000-0000|-0000-0000-0000-4400|--------------2h4-4-||
A||--------------------|--------------------|-4444-4444-222------||
E||--------------------|--------------------|--------------------||
    i    i    i    i     i    i    i    i     i    i    i    i

(wait)

G||--------------6--9--|
D||-----------7--------|
A||--------------------|
E||--------------------|
    i    i    i    i 
G||--------66-6444-2444|--------66-6444-----||  x3
D||-0004-44------------|-0004-44--------7764||
A||--------------------|--------------------||
E||--------------------|--------------------||
    i    i    i    i     i    i    i    i   
G||--------66-6444-2444|--------66-6444-----|
D||-0004-44------------|-0004-44--------7777|
A||--------------------|--------------------|
E||--------------------|--------------------|
    i    i    i    i     i    i    i    i  

G||----------18.18-18--16--14.16---|----------------16--14.16--||  x4
D||-----16-------------------------|-----14--------------------||
A||-17-----------------------------|-16------------------------||
E||--------------------------------|---------------------------||
    i      i       i       i         i       i    i     i 


Tab by Pedro Zappa
-----------------------------------------------------------------------------
-----------------------------------------------------------------------------
Suggest correction
Give kudos to tab author, rate the tab!
1 2 3 4 5
comments
print report bad tab
guest
You may want to rate the tab now too:
select rating
Wanna post a correction for this tab? Suggest correction