Oops, an error
Loading. Please wait.

The Way We Feel bass

551 views 3 this week
1 commentread comment
1 2 3 4 5
3 more votes to show rating
add to favorites
×
Save as Personal and add changes to this tab that will be seen only by you. Learn more ›
×
You can save this tab as Personal to edit and correct it or add notes. All changes will be seen only by you. Learn more »
launch autoscroll
font size
0
reset
guitar tuner
edit
Autoscroll
slow
fast
+/-
esc
set tempo
stop
Difficulty
intermediate
The guitar chords are: A, G, D
The whole song.

Intro:

G|---------------------------------------------------|
D|---------------------------------------------------|
A|---------------------------5-----------------------|
E|--5----------3-------------------------------------|

Chorus/Refrain, its basicly the whole song
G|---------------------------------------------------------|
D|---------------------------------------------------------|
A|----------------------------55-5-5-5-5-55-55-5-5-5-5-5-5-|
E|-55-5-5-5-5-55-33-3-3-3-3-33-----------------------------|

Bass solo thingy, you can play it a few times during the song
G|----------------------------------------------------------|
D|------------------------------4455-7-4-5---4455-7-4-5-----|
A|--4455-7-4-5----2233-5-3-2---5----------555----------55---|
E|-5----------55-3----------33------------------------------|

Thanks for enjoying my tab, please contact me if you have notes or improvements.
Cheers

http://www.youtube.com/user/TrojanSkinhead94

            
            
Suggest correction
Creating personal tab
Creating personal tab
You can edit any tab online and save it as your Personal.

You can edit, replace or remove any tab part or add personal notes – all changes will be seen only by you.

Personal tabs can be accessed anytime from any device, even offline.
Learn more »
Give kudos to tab author, rate the tab!
1 2 3 4 5
comments
print report bad tab
1 comment total.
0 reply
wezbash 20 Jan 22, 2017 06:30 PM

Anybody Know That Old Tattoo Bass Tabs.

guest
Wanna post a correction for this tab? Suggest correction