Oops, an error
Loading. Please wait.

Baby Bass Tab

639 views 1 this week
no commentswrite comment
1 2 3 4 5
3 more votes to show rating
add to favorites
launch autoscroll
font size
0
reset
guitar tuner
Autoscroll
slow
fast
+/-
esc
set tempo
stop
Help us to improve Ultimate-Guitar.com Take our survey!
×
Author
Difficulty
novice
Evil Superstars - B.A.B.Y.
--------------------------

Evil Superstars website --> http://www.mauroworld.com/superstars/index_sup.htm (one of 
bandmembers is the guitarist from dEUs)

Standard tuning (EADG) and all 1/16th notes.

Opens with a bend on F (second fret on the E string)

G|---------------------------------|
D|---------------------------------|
A|-------1-1-----------------4-----|
E|-2-2-2-----0-0-0-5-5-5-5-5---4-3-|

This is the main riff being used troughout the song.

---

Use this...

G|---------------------------------|
D|---------------------------------|
A|-------1-1-----------------------|
E|-2-2-2-----0-0-0-----------------|

...just before the line "smart sex with a winner" is used, every first time after the chorus.

Fun and easy song to play with your band, perfect for beginners (like me ^^).
Suggest correction
Give kudos to tab author, rate the tab!
1 2 3 4 5
comments
print report bad tab
guest
You may want to rate the tab now too:
select rating
Wanna post a correction for this tab? Suggest correction