Oops, an error
Loading. Please wait.

Holy Spirit Come Home Bass Tab

638 views 1 this week
no commentswrite comment
1 2 3 4 5
please rate
add to favorites
launch autoscroll
font size
0
reset
guitar tuner
Autoscroll
slow
fast
+/-
esc
set tempo
stop
Help us to improve Ultimate-Guitar.com Take our survey!
×
Author
Difficulty
novice
-------------------------------------------------------------------------------
Holy Spirit Come Home by Evil Superstars
-------------------------------------------------------------------------------
Tabbed by: flippiewippie
Email: cinefil18@hotmail.com

Tuning: EADG

Intro x20
G|--------------------------------------------------------------------------|
D|-----------10-------------------------------------------------------------|
A|--------------------------------------------------------------------------|
E|--10-8-10-----10-8--------------------------------------------------------|

'Holy spirit come home'
G|---------------------------------|
D|-----------10--------------------|
A|---------------------------------|
E|--10-8-10-----10-8---------------| x4

G|-----------10--------------------|
D|---------------------------------|
A|---------------------------------|
E|--10-8-10-----10-8---------------| x4

Repeat

Then:

G|---------------------------------|
D|---------------------------------|
A|---------------------------------|
E|--22222222222222222222222--------| Im not gonna count that stuff. Just listen.

Thats the whole song. If the structure isnt clear just listen to the song.

Suggest correction
Give kudos to tab author, rate the tab!
1 2 3 4 5
comments
print report bad tab
guest
You may want to rate the tab now too:
select rating
Please do not post tabs as comments. Select "correction" instead!